Oasis
3.Hung In A Bad Place
(capo 2nd)
E and A all the way through...
E A
------------------------------|
----------------2--2--2-0-2-0-|
-1--1--1-0-1-0--2--2--2-0-2-0-|
-2--2--2-0-2-0--2--2--2-0-2-0-|
-2--2--2-0-2-0--0--0--0-0-0-0-|
-0--0--0-0-0-0----------------|
----------|
----------|
------9~~-|
--s11-----|
----------|
----------|
i can go where i wanna
be who i wanna be now
i can sleep under water
and i worry what i'm gonna dream now
yeah, the times come and gone
and i know where i'm from, i can be so
it's ours.....
you're on your own banana skin feet now
yeah i've been,
hung in a bad place, i've no
sun on my face, i've been
hung in a bad place
for too long...
i can say what i wanna
feel how i wanna feel now
i can squeeze all the hours
......... with ease now
i can sing to the trees
....... knees for free, yeah yeah
you'll be bored telling your story
nature is calling for me
you got me!
yeah i've been
hung in a bad place, i've been
sun on my face, i've been
hung in a bad place
for too long
yeah i've been
hung in a bad place, i've no
sun on my face, i've been
hung in a bad place
for too long
for too long
Solo Part 1
e------------------------------------------------------------------------------|
B--10~---10--7~-----10--7~----10--7~-------10--7~-----10--7~-----10b11~--7^----|
G-----------------8----------------------8---------------------8---------------|
D------------------------------------------------------------------------------|
A------------------------------------------------------------------------------|
E------------------------------------------------------------------------------|
Then Part 2 (This is cool!)
e--------------------|
B---4b6r4p2----------|
G------------4-------| Play this for several times and play the following
D--------------------|
D------2-----2-----2------2-|
A--2h4---2h4---2h4---2h4----|
Riff 2 (this one is played at the and it's obvious. you'll hear it well)
G-------------------2----------------------------------------------------------|
D-------------2--4----4--2-----------------------------------------------------|
A-------2--4----------------4--2-----------------------------------------------|
E--2--5-----------------------------5--2---------------------------------------|




Ваше мнение



Капча