Drums solo and then:
2, 3 and 4...
This (x2)
e-------------------------------------------------------------------------
B-2-2--2-2--2-------------------------------------------------------------
G-2-2--2-2--2-------------------------------------------------------------
D-2-2--2-2--0/2-0/2-2-----------------------------------------------------
A-0-0--0-0--0-------------------------------------------------------------
E-------------------------------------------------------------------------
contunue while the verses
Make no illusion try to click with what you've got D--0/2-
etc..
CHORUS:
D
Go let it out
F
Go let it in
G A
And go let it out
(Pick up your face!!!!!!!!)
Then... the high
e--3/5--5-5-5--3--5-5-5------------------
B--3/5--5-5-5--3--5-5-5------------------
G--4/6--6-6-6--4--6-6-6------------------
D--5/7--7-7-7--5--7-7-7------------------
A--5/7--7-7-7--5--7-7-7------------------
E--3/5--5-5-5--3--5-5-5------------------
Repeating the intro
A
Life is precossious in the most peculiar way...
CHORUS (twice)
And...
D F A G
Is it any wonder while princess and kings?...
G D G
We're the keepers of their destiny
D G
We're the keepers of their destiny (ooah!!)
Another verse:
A
I'm gonna live in the city....
CHORUS (twice)
And
Is it any wonder while princess and kings??....
The rest is in D, changing to F and G
Is's mine:
Godo Monge FIND
Mйxico city




Ваше мнение



Капча