t. See http://www.olga.net/faq/ for more information. #
Date: Thu, 27 Apr 2000 09:57:49 -0400
From: "Ben Fargin"
Subject: o/oasis/gas_panic.crd
GAS PANIC! written by NOEL GALLAGHER
from the album STANDING ON THE SHOULDER OF GIANTS
CAPO ON THIRD FRET: (Chords relative to capo)
Bb9 F(add9)/A G Cadd9 Dsus4 F
-3------3------3----3-----3----1---
-3------3------3----3-----3----1---
-0------0------0----0-----2----2---
-3------3------0----2-----0----3---
-1------0------2----3----------3---
---------------3---------------1---
PHRASE 1: (guitar break)
BU BD
E----------------
B--10-(11)-10--8-
INTRO: Bb9 - F(add9)/A - G
Bb9 - F(add9)/A - G
VERSE: Bb9 - F(add9)/A - G
Bb9 - F(add9)/A - G
Bb9 - F(add9)/A - G
Bb9 - F(add9)/A - G
CHORUS: Bb9 - F(add9)/A - G
Bb9 - F(add9)/A - G
Bb9 - F(add9)/A - G
Cadd9 - Dsus4
Bb9 - Cadd9 - G
VERSE 2: (then)
CHORUS: (then)
GUITAR BREAK: repeat these chords over phrase 1:-
G / G / F / Cadd9 / G / G / F / Cadd9 / Bb9 / Cadd9 / Cadd9
HARP SOLO: over chorus chords.
REPEAT CHORUS: x 2, then:-
Bb9 - Cadd9 - G until the end.




Ваше мнение



Капча