#----------------------------------PLEASE NOTE---------------------------------#
#This file is the author's own work and represents their interpretation of the #
#song. You may only use this file for private study, scholarship, or research. #
#------------------------------------------------------------------------------##
Capo=3rd fret
Bb6 (x13030)
Fadd9/6 (x33030)
Gm7 (313033)
Bb5 (x133xx)
C5 (x355xx)
G5 (3x0033)
F (133211)
Bb6 Fadd9/6 Gm7
What tongueless ghost of a sin crept through my curtains
Sailing on a sea of sweat on a stormy night
I think he don't got a name but I can't be certain
And in me he starts to confide
Bb6 Fadd9/6 Gm7
My family don't seem so familiar
Bb6 Fadd9/6 Gm7
And my enemies all know my name
Bb6 Fadd9/6 Gm7
If you hear me tap on your window
C5
You better get on your knees and prey
D5
Panic is on the way!
Bb5 C5 G5
My pulse pumps out a beat to the ghost dancer
Bb6 Fadd9/6 Gm7
My eyes are dead and my throat's like a black hole
Bb6 Fadd9/6 Gm7
And if there's a god would he give another chancer
Bb6 Fadd9/6 Gm7
An hour too sing for his soul
Use F5 instead of C5.
Solo
----
e--------------------------------------------------------------------
B--------------------------------------------------------------------
G-17b19~~-19r17-15~~-17b19~~-19r17-15~~--3~~~------------------------
D--------------------------------------------------------------------
A--------------------------------------------------------------------
E--------------------------------------------------------------------
e--------------------------------------------------------------------
B--------------------------------------------------------------------
G-17b19~~-19r17-15~~-17b19~~-19r17-15~~-17b18-18r17-15~~-----3~~~~~~-
D--------------------------------------------------------------------
A--------------------------------------------------------------------
E--------------------------------------------------------------------
e--------------------------------------------------------------------
B--------------------------------------------------------------------
G-6h8-6--------------------------------------------------------------
D-------8-6----------------------------------------------------------
A-----------8p6p4----------------------------------------------------
E-----------------6~~------------------------------------------------
e-----------------------------------------------------------------------
B-9-------------------------6-9b11~~----(6)----9(6)----9(6)----9------9-
G-8b10--8~~-6-8b10-8-6---------------6~-8b10-----8b10----8b10---8b10----
D----------------------8~~----------------------------------------------
A-----------------------------------------------------------------------
E-----------------------------------------------------------------------
e-----------------------------------------------------------------------
B------------------------------------------------------------------9----
G----6-------6-------6-------6---------6-8b10r8-6-8b10-6-8~-6-8/10------
D-8~---8p6h8---8p6h8---8p6h8---8p6h8~~----------------------------------
A-----------------------------------------------------------------------
E-----------------------------------------------------------------------
e-----------------------------------------------------------------------
B----9-10-11~~-11b14-11b14-11b14~~~-------------------------------------
G-10--------------------------------------------------------------------
D-----------------------------------------------------------------------
A-----------------------------------------------------------------------
E-----------------------------------------------------------------------
Jessika Penther...




Ваше мнение



Капча