t. See http://www.olga.net/faq/ for more information. #
Date: Fri, 14 Apr 2000 07:41:07 -0400
From: [email protected]
Subject: o/oasis/fuckin_in_the_bushes.tab
FUCKIN'IN THE BUSHES BY OASIS
FROM THE ALBUM STANDING ON THE SHOULDER OF GIANTS (2000)
-------------------------------------------------------
NOTE: This song has got many little solos that are not
easy to tab so I tried to do them as right as possible...
As there are no lyrics, I divided the song into parts
to make it easier.Hope you'll enjoy!!!
PART I:
guitar1: (x30)
-------------------
-------------------
-------------------
-------------------
-------------------
--0--0--3p0--0-----
guitar2: (x30)
-------------------
-------------------
--9----------9-----
----9--12p9--------
-------------------
-------------------
Then,a 3rd guitar plays this fill:
------------------------
------------------------
------------------------
--7b--r7h5--------------
-----------7--7--7--7---(x4)
------------------------
PART II:
-------------------------------
-------10--8-------------------
--7s9~-------9--7--------------
------------------10--9--7----- (x4)
---------------------------10--
-------------------------------
let ring...
------------------------------------------------------
-------8------10s15~--13--10--13--10~--10h8--------8--
--7s9~---7s9~-------------------------------9h7--9----
------------------------------------------------------
------------------------------------------------------
------------------------------------------------------
-----------------------------------------------
-----------------------------------------------
--9h7--9h7-------------------------------------
-----------10h9--7-----------7~--7h5-----------
-------------------10--7--10---------7h5--7~---
-----------------------------------------------
PART III:
guitar1:
------------------------------------------
------------------------------------------
------------------------------------------
--7b--r7h5--------------------7b--r7h5----
-----------7--7--7--7---(x3)-----------7--(x2)
------------------------------------------
------------------------
------------------------
------------------------
--7b--r7h5--------------
-----------7--7--7--7---(x9)
------------------------
guitar2: starts later
-------------------
------8---------8--
--7s9---9~--7b9----
-------------------
-------------------
-------------------
PART IV:
guitar 1:
-----------------------------------------------
-------10--8----------------------------8~-----
--7s9~-------9--7--------------------9~----9~--
------------------10--9--7-----(x17)-----------
---------------------------10------------------
-----------------------------------------------
guitar2: starts later
--17s22~--22~--17p15----15--17--15----15----------
---------------------17------------17----17--15~--
--------------------------------------------------
--------------------------------------------------
--------------------------------------------------
--------------------------------------------------
another guitar plays this just at the end:
----------------
----------------
----------------
--7b--r7h5------
-----------7~---
----------------
THE END...




Ваше мнение



Капча