Band: Oasis
Song: D'You Know What I Mean?

INTRO:
|---------|---------|---------|---------|---------|----------|
|---------|---------|---------|---------|---------|----------|
|---------|---------|---------|---------|---------|----------|
|-2-------|---------|-2-------|---------|-2-------|-------2/-|
1 2 3 4 1 2 3 4 1 2 3 4 1 2 3 4 1 2 3 4 1 2 3 4

|-----------|------------|
|-----------|------------|
|-----------|------------|
|-10-/-12-/-|-14-----14/-|
1 2 3 4 1 2 3 4

VERSE/CHORUS/SOLO:
|--------------------|--------------------------|
|*-------------------|-------------------------*|
|*-------------------|-----------2-2-2-2-2-2-2-*|
|--2-2-2---0-5-5-5-5-|-0-0-0---2----------------|
1 & 2 & a 3 e & 4 1 & 2 & a 3 e & a 4 e &

1ST PRE-CHORUS:
|------------------|------------------|
|*-4-4-4-4-4-4-4-4-|-2-2-4-----------*|
|*-----------------|-------2---2-2-4-*| (x3)
|------------------|------------------|
1 & 2 & 3 & 4 & 1 & 2 & 3 & 4 &

|-----------------------|-----------------------------|
|-----------------------|-----------------------------|
|-5-5-5---5-7-7-7-7---7-|-2-2-2-2-2-2-2-2-2-2-2-2-2-2-|
|-----------------------|-----------------------------|
1 & 2 & a 3 e & 4 & a 1 e & 2 & a 3 e & a 4 e & a

2ND PRE-CHORUS:
|------------------|------------------|
|*-4-4-4-4-4-4-4-4-|-2-2-4-----------*|
|*-----------------|-------2---2-2-4-*| (x3)
|------------------|------------------|
1 & 2 & 3 & 4 & 1 & 2 & 3 & 4 &

|-----------------------|-----------------------------|
|-----------------------|-----------------------------|
|-5-5-5---5-7-7-7-7---7-|-2-2-2-2-2-2-2-2-2-2-2-2-2-2-|
|-----------------------|-----------------------------|
1 & 2 & a 3 e & 4 & a 1 e & 2 & a 3 e & a 4 e & a

|-----------------------------4---|
|---------------------------4---4-|
|-2-2-2-2-2-2-2-2-2-2-2-2-2-------|
|---------------------------------|
1 e & a 2 e & a 3 e & a 4 e & a

PRE-SOLO:
|-------------------|-------------------|---------------------|
|-------------------|-------------------|---------------------|
|-5-5-5-7---7-7-7-7-|-5-5-5-7---7-7-7-7-|-5-5-5-7---7-7-7-7-7-|
|-------------------|-------------------|---------------------|
1 & 2 & 3 & 4 e & 1 & 2 & 3 & 4 e & 1 & 2 & 3 & 4 e & a

END:
|-------------------|-------------------|---------------------|
|-------------------|-------------------|---------------------|
|-5-5-5-7---7-7-7-7-|-5-5-5-7---7-7-7-7-|-5-5-5-7---7-7-7-7-7-|
|-------------------|-------------------|---------------------|
1 & 2 & 3 & 4 e & 1 & 2 & 3 & 4 e & 1 & 2 & 3 & 4 e & a

|---------|---------|
|---------|---------|
|---------|---------|
|-2-------|---------|
1 2 3 4 1 2 3 4




Ваше мнение



Капча