Cloudburst
Oasis
Live Forever single.
Chords used:
E (022100)
A (x02220)
Asus4 (x02230)
C#m (x46654)
D (xx0232)
Riff played during Intro and Verses:
b= bend ( 6b7 means bend string at 6th fret to play the note the string
would play at the 7th fret without being bent)
r= release ( 6b7r6 means bend at 6th fret to make note of 7th fret, then
release string to make note of 6th fret.)
h= hammer on
p= pull off
E A E A
e!------------------------------------------------------------------------------
B!----------------------3-3-3-3-2--2-2------------------------3-3-3-3-2--2-2----
G!-------------------2--2-2-2-2-2--2-2---------------------2--2-2-2-2-2--2-2----
D!-2--2-2------2-----2--2-2-2-2-2--2-2-----2--2-2-----2----2--2-2-2-2-2--2-2----
A!-2--2-2------2-----0--0-0-0-0-0--0-0-----2--2-2-----2----0--0-0-0-0-0--0-0----
E!-0--0-0--3b4-0-3b4-------------------3b4-0--0-0-3b4-0-3b4-----------------3b4-
Verse 1
-------
[NOTE: play chords below along with above riff]
E A
Wake up, there's a new day dawning
E A
I think I'll take a little walk for a while
E A
I need shades cos the sun is blinding
E A
And I can see for miles and miles
E A
Yeah I can feel the earth beneath me
E A
I lie down we are as one
E A
They look but they cannot find me
E A
I'm off and heading for the sun
Pre-Chorus
----------
C#m A C#m A
I'm getting colder, I feel a chill in the air
C#m A
There's a change in the weather
C#m G#m
Here it comes again,
A E
now I can feel the rain
e----------------------------------------------------------------
B-------------------------------3-3-3-3-------------3-3-3-3------
G-------------------------------2-2-2-2-------------2-2-2-2------
D----------------------2--------0-0-0-0----2--------0-0-0-0------
A----------------------2------0------------2------0--------------
E----------------------0--0h3--------------0--0h3-----------3b---
Chorus
-------
D D D
The wind that brings on the change is taking me over
D D
The wind that brings on the rain is making me older
e------------------------------------------------------------------------------
B------------------------------------------------------------------------------
G------------------------------------------------------------------------------
D------------------------------------------------------------------------------
A------------------------------------------------------------------------------
E----------------------------------------------------4b5--0-3p2p0-3p2p0-3p2p0--
[back to verse riff, using same chords as Verse 1]
Verse 2
-------
Downtown, the moon is shining, I'm gonna dress it up in style
My business everybody's minding, I need to get away for a while
Pre-Chorus
----------
I'm getting colder, I feel a chill in the air
There's a change in the weather
Here it comes again, now I can feel the rain [play pre-chorus riff]
Chorus
------
The wind that brings on the change is taking me over
The wind that brings on the rain
is making me older [NOTE:all other instruments besides lead guitar stop]
e------------------------------------------------------------------------------
B------------------------------------------------------------------------------
G---------------------------------------------------------6b7r6----------------
D--------------------------------------6b7r6--------5h7---------7--------------
A--------------------------------------------7--5h7-----0--------------5h7-----
E---------------4b5-3p2p0-3p2p0-3p2p0------------------------------5h7-----0---
[NOTE:resume background music]
E A E A
e-----------------------------------------------------------------------------
B-----------------------------------------------------------------------------
G-------------------------6b7r6-----------------------------------6b7r6--------
D----6b7r6--------5h7------------7-------------6b7r6--------5h7----------------
A----------7--5h7-------0--------------5h7-----------7--5h7-----0--------------
E--0-------------------------------5h7-----0----------------------------------




Ваше мнение



Капча