Date: Sun, 17 Mar 1996 21:39:26 +0000 (GMT)
From: Barry Swaisland
Subject: TAB Cigerettes and Alcohol by Oasis
The two riffs in the .crd file are better played...
Riff 1
hold bend
---------------------------------------
--9----------10--9--12-----------------
--9--9----9--9---9--11bu13-13-13r-9----
--9--9h11-9--11--9---------------------
---------------------------------------
---------------------------------------
Riff 2
hold bend
---------------------------------------
--12-----12-12-12-12-12---0-0-0-0------
--14bu16-16-16-16-16-16---7-X-6-X------
---------------------------------------
---------------------------------------
---------------------------------------
Barry Swaisland
[email protected]




Ваше мнение



Капча