A Good B Side On The Go Let It Out Single
Chords used:
D Cadd9 G
e-2--3-----3-|
B-3--3-----3-|
G-2--0-----0-|
D-0--2-----0-|
A-x--3-----2-|
E-x--x-----3-|
Intro: There are a few hammer ons in the intro with some sort of flange on them
G-5-5h7----5-5h7----5-5h7
Intro Chords: D for a few bars then Cadd9 G D
Verse 1:
D
spend your days just working on shopping
Cadd9 D
dependin' on how much your look is in
D
spend your nightlife table hopping
Cadd9 D
and trying to keep that bag a bones in trim
Chorus 1:
Cadd9 G D
i don't mind not feelin' immortal
Cadd9 G D
cause it ain't all that as far as i can tell
Cadd9 G D
i don't mind not going to heaven
Cadd9
as long as they've got cigarettes
G D
as long as they've got cigarettes in hell
Little fills of the D Cadd9 G chord sequence:
e-----2-0-------0----------0--------------|
B---3---------3---3----3-------3----------|
G-----------------------------------------| 2 Times then D
D-0---------------------------------------|
A-----------3---------------------0-2-3-5-|
E--------------------3--------------------|
D
by the time we start getting used to
Cadd9 D
the dirt that's forming on the window sill
D
now we know we've got ourselves into
Cadd9 G
the cage that keeps the mice on their treadmill
Cadd9 G D
i don't mind not feelin' immortal
Cadd9 G D
cause it ain't all that as far as i can tell
Cadd9 G D
i don't mind not going to heaven
Cadd9
as long as they've got cigarettes
G D
as long as they've got cigarettes in hell
Little fills of the D Cadd9 G chord sequence:
e-----2-0-------0----------0--------------|
B---3---------3---3----3-------3----------|
G-----------------------------------------| 2 Times then D
D-0---------------------------------------|
A-----------3---------------------0-2-3-5-|
E--------------------3--------------------|
Solo: over
e-2-2-2/3/5-10-10-10-10/--2-2-2/3/5-9-9b10r9b10r9b10r9
e-2-2-2/3/5-10-10-10-10/--2-2-2/3/5-9-9b10r9b10r9b10r9--2-2-2-2-5-5/10-10
Cadd9 G D
i don't mind not feelin' immortal
Cadd9 G D
cause it ain't all that as far as i can tell
Cadd9 G D
i don't mind not going to heaven
Cadd9
as long as they've got cigarettes
G D
as long as they've got cigarettes in hell
(noel coughing and puffing on a cigarette)




Ваше мнение



Капча