CIGARETTES & ALCOHOL
(N.Gallagher)

Tabbed by James Elkins ([email protected])

'Familiar To Millions'

oasis at Wembly 21st of July

(Intro)
E
|-------------------------------------------------------------------|
|----------2-2---------------------2-2--------------------2-2-------|
|----------2-2---------------------2-2--------------------2-2-------|
|--2x2x2x2-----4-2---------2x2x2x2-----4-2---------2x2x2x2----4-2-4-|
|--2x4x2x4-----------------2x4x2x4-----------------2x4x2x4----------|
|------------------4b4.5-2-0---------------4b4.5-2-0----------------|
F# A
----2-----5----| (Use mild, crunchy distortion for the top
----2-----5----| line, and a more distorted noise for the
----3-----6----| bottom line)
-2--4-----7----|
----4-----7----|
----x-----x----|

|--------------------------------------------------------------------|
|---9---9--9--9----9-9-9-9------------9---9--9--9------9-10-9-10-9~--|
|---9---9--9--9----9-9-9-9------------9---9--9--9------9-9--9-9--9~--|
|---9---9--11-9--9-9-9-9-9------------9---9--11-9---9--9-11-9-11-9~--|
|--------------------------------------------------------------------|
|--------------------------4b4.5-2-0---------------------------------|

(These riffs are played through out the song with slight variations)

Verse 1-
E F# A E
Is it my imagination, or have I finally found something worth looking for,
E F# A E
I was looking for some action, but all I found was Cigarettes and Alcohol,

Chorus-
A E A E
You could wait for a lifetime, to spend your days in the sunshine,
A E D
You might as well do awhite line, 'cause when it comes on top,
A E A E
You gotta make it happen, you gotta make it happen, (X2)

D A E A E

|-------------------------|
|----------2--x2x2x2x2x2--|
|----------2--x4x2x4x2x4--|
|--2x2x2x2----------------|
|--2x4x2x4----------------|
|-------------------------|

F A

(Back to riffs)

Verse 2-
Is it worth the agrivation,
to find yourself a job when there's nothing worth working for,
It's a crazy situation, but all I need are Cigarettes and Alcohol,

Chorus
|-------------------------------------| x3 (Plus variations)
|-9-9--9-10-9--12---------------------|
|-9-9--9-9--9--11b13-13b11-9--9h11p9--|
|-9-11-9-11-9-------------------------|
|-------------------------------------|
|-------------------------------------|

E A
You gotta make it
E A
You gotta fake it
(X2)

|-------------------------------------------------------------------------|
|--12----12---------------------------------------------------------------|
|--14b16-14b14--14b16r14p12----12-12--------12-12--------12----12-14bbb16-|
|---------------------------14--------12h14--------12h14----14------------|
|-------------------------------------------------------------------------|
|-------------------------------------------------------------------------|

------------------|--------------|--------------|-------------|--------------|
------------------|--------------|-15b17r15-12--|-19b21r19-17-|-17b-17b-17b-|
-p12-12----12-12-|-14b16r14-12--|--------------|-------------|--------------|
--------14--------|--------------|--------------|-------------|--------------|
------------------|--------------|--------------|-------------|--------------|
------------------|--------------|--------------|-------------|--------------|

Any comments or requests, contact us.




Ваше мнение



Капча