Born On A Different Cloud
From Dave Curtis
Chords:
Dm xx0767
A xx7657
G 320033
G2 320030
Am x02210
Am2 x02211
E7 x10200
E 022100
F 133211
Fill 1:
e-----------0----------|
B---------1-----0------|
G-0h2h0-2----------2-0-|
D----------------------|
A----------------------|
E----------------------|
Fill 2:
e-0-----|
B---0---|
G-----0-|
D-------|
A-------|
E-------|
Fill 3:
e-15b16-13----------|
B----------15-13----|
G----------------14-|
D-------------------|
A-------------------|
E-------------------|
Intro:
Dm, A, Dm, A, E7
Am Am2, Am
Born on a different cloud,
G G2, G
From the ones that have passed round town,
F
Its no surprise to me,
G G2, G
That you're classless clever and free
Am Am2, Am
Loaded just like a gun,
G G2, G
You're the hero thats still unsung,
F
Livin on borrowed time,
E7 E, E7
You're my sun and you're gonna shine
Dm
Talkin to myself again,
A
This time I think I'm gettin through,
Dm
Its funny how you think,
Am E7
Its funny how, Its funny how when you do

Am Am2 Am
Born on a different cloud,
G G2, G
From the ones that have passed round town,
F
Its no surprise to me,
G G2, G
That you're classless clever and free
Solo:
NB: Youll need a slide to tackle this solo.
Go buy one if you aint got one.
Am Am2, Am G G2, G
e------------------------------------------------------|
B-----------------15s17-13----------------15s17-13-----|
G-----------14s17-------------------14s17--------------|
D-14s12s14---------------------------------------------|
A------------------------------------------------------|
E------------------------------------------------------|
F G G2, G
e-------------------------------------------------|
B-14s16-13--------------16s18-15------------------|
G-------------------------------------------------|
D----------------------------------------14s12s14-|
A-------------------------------------------------|
E-------------------------------------------------|
G
Lonely soul,
Am Fill 1
Busy working overtime,
G
Nothing ever gets done
Am Fill 1
Especially when your hands are tied,
G Fill 2
Lonely soul,
Am Fill 1
Bakin up yer mothers pride,
G Fill 2
Nothing ever gets done,
E7
Not until your wars won
Am
We're born on a different cloud
G
You're born on a different cloud
F
We're born on a different cloud
G
We're born on a different cloud
Am Am2, Am
We're born on a different cloud
G G2, G
We're born on a different cloud
F
Born on a different cloud
G G2, G, Fill 3
We're born on a different cloud

Am Am2, Am, Fill 3
Born on a different cloud
G G2, G, Fill 3
Born on a different cloud
F Fill 3
Born on a different cloud
G G2, G, Fill 3
Born on a different cloud

Am
La la la la
La la la la la la
G
La la la la
La la la la la la
F
La la la la
La la la la la la
G
La la la la
La la la la la la

Am
La la la la
La la la la la la
Born on a different cloud
G
La la la la
La la la la la la
Born on a different cloud
F
La la la la
La la la la la la
Born on a different cloud
G
La la la la
La la la la la la
Born on a different cloud




Ваше мнение



Капча