BE HERE NOW
(Gallagher)
THE CHORDS USED:
B A E G
e|--7----5----0----3--------|
B|--7----5----0----3----|
G|--8----6----1----4----|
D|--9----7----2----5--------|
A|--9----7----2----5--------|
E|--7----5----0----3----|
VERSE 1
B
Wash your face in the morning sun
A C#
Flash your pan at the song that Im singin
B
Touch down base livinon the run
A C#
Make no sweat of the hole that your diggin
VERSE 2
Wrap up cold when its warm outside
Your shit jokes remind me of Digsys
Be my magic carpet ride
Fly me down to capital city in the sun
CHORUS
E GA
Kickin up a storm
E GA
Since the day that I was born
E
Sing a song for me
D A
One from Let It Be
G A Bb B
Open up your eyes get a grip of yourself inside
CHORUS
CHORUS & SOLO(chords from verses)
VERSE 3
Wrap up cold when its warm outside
Please sit down you make me feel giddy
Be my magic carpet ride
Fly me down to capital city
CHORUS
OUTRO
-------------------------
the two main BHN riffs
E----------------------------------------------------------|
B----------------------------------------------------------|
G-9-9-7-8-------9-9-7-8-------9-9-7-8--------7---7---------|
D---------9-7-9---------9-7-9---------9-7-9----9---9-9-7---|
A----------------------------------------------------------|
e----------------------------------------------------------|
E--------------------------|
B--------------------------|
G-12-14-14b15-12-14-12-----|
D--------------------------|
A--------------------------|
e--------------------------|


Ваше мнение



Капча