Oasis
A Quick Peep_Heathen Chemistry 2002
Main riff played by Andy Bell

Main riff (acoustic guitar):
--------------------------------------------------------------------------------
-----1------------------1------------------1------------------------------------
-0h2---2-0---0------0h2---2-0---0-2----0h2---2-0---0---2-2-0h2p0---0------------
-----------3---0--------------3------------------3---3-----------3---3----0-----
-----------------------------------------------------------------------3b-------
--------------------------------------------------------------------------------
Ending:
----------------------------------------------------------
---13b15-15r13---------------------------------13b15------
---------------12b14-14r12--10-12-10----------------------
-------------------------------------12-10-12-------------
----------------------------------------------------------
----------------------------------------------------------
Tabbed by Dan Fuller - [email protected]
email me any comments/suggestions




Ваше мнение



Капча