#----------------------------------PLEASE NOTE--------------------------------#
#This file is the author's own work and represents their interpretation of the#
#song. You may only use this file for private study, scholarship, or research.#
#-----------------------------------------------------------------------------#
#-- File created with Instab - http://www.pconline.com/~smcarey/instab.html --#
#-----------------------------------------------------------------------------#

Author/Artist: OAR Of A Revolution
Title: The Wanderer
Transcribed by: Aaron Stark
Email: [email protected]

This is in the key of F major

---------1-1-----3-3----3-3----1----------------------------------------------|
---------1-1-----4-4----3-3----2----------------------------------------------|
---------2-2-----5-5----4-4----3----------------------------------------------|
---------3-3-----5-5----5-5----3----------------------------------------------|
---------3-3-----3-3----5-5----1----------------------------------------------|
---------1-1------------3-3---------------------------------------------------|
Intro: F F C C G G Asharp

-1-1-------8-8--------3-3--------6-6------------------------------------------|
-1-1-------8-8--------3-3--------6-6------------------------------------------|
------------------------------------------------------------------------------|
------------------------------------------------------------------------------|
------------------------------------------------------------------------------|
------------------------------------------------------------------------------|
Verse Guitar 1:

-1-1----3-3----3-3-----1-1----------------------------------------------------|
-1-1----4-4----3-3-----2-2----------------------------------------------------|
-2-2----5-5----4-4-----3-3----------------------------------------------------|
-3-3----5-5----5-5-----3-3----------------------------------------------------|
-3-3----3-3----5-5-----1-1----------------------------------------------------|
-1-1-----------3-3------------------------------------------------------------|
Verse Guitar 2:

--------------------------1----3---3----1-------------------------------------|
--------------------------1----4---3----2-------------------------------------|
--------------------------2----5---4----3-------------------------------------|
--------------------------3----5---5----3-------------------------------------|
--------------------------3----3---5----1-------------------------------------|
--------------------------1--------3------------------------------------------|
Chorus: Strum chords F C G Asharp




Ваше мнение



Капча