O.A.R.
Toy Store (intro)
Standard Tuning (EADGBE)
-Listen to the song to get the pattern right
email: [email protected]
[email protected]-12-12-11-9
B|------------------10----10--9----9/10--10/12----12-------12---------------
G|--------------------------------------------------------------------------
D|--------------------------------------------------------------------------
A|--------------------------------------------------------------------------
E|--------------------------------------------------------------------------
E|--12-11-9-7---------------------------------------------------------------
B|------------10-9-7-5--7^7^7^--5-5--0---5-7^7^7^7^--7-7--5-5h7h5-0---5-7---
G|-------------------------------------6----------------------------6-------
D|--------------------------------------------------------------------------
A|--------------------------------------------------------------------------
E|--------------------------------------------------------------------------
E|--4-5-4-5/7-7-7/9---14-14-14-14-14-14-14/12-12-12---12---12---12-12-12----
B|--------------------------------------------------------------------------
G|--------------------------------------------------------------------------
D|--------------------------------------------------------------------------
A|--------------------------------------------------------------------------
E|--------------------------------------------------------------------------
E|--12-12-12/11-11-11/9-9-9-7-----------------------------------4-5--5/7----
B|----------------------------10-10/9-7-5---0---5-7^7^7^-5--5-7-------------
G|----------------------------------------6---6-----------------------------
D|--------------------------------------------------------------------------
A|--------------------------------------------------------------------------
E|--------------------------------------------------------------------------




Ваше мнение



Капча