#----------------------------------PLEASE NOTE--------------------------------#
#This file is the author's own work and represents their interpretation of the#
#song. You may only use this file for private study, scholarship, or research.#
#-----------------------------------------------------------------------------#
=========================
== ARTIST: O.A.R ==
== SONG: I Feel Home ==
== ALBUM: Souls Aflame ==
== TAB BY: Hefty Baggs ==
=========================
INTRO:
-|-0----------0---------0---------0---|-
-|-1----------1---------1---------1---|-
-|-0h2--------0h2-------0h2-------0h2-|-
-|-0h2--------0h2-------0h2-------0h2-|-
-|------------------------------------|-
-|------------------------------------|-

-|-0---0-----0-0-0---0-----|-0---0-----0-0-0---0-----|-
-|-1---1-----1-1-1---1-----|-1---1-----1-1-1---1-----|-
-|-0h2-2-----2-2-0h2-2-----|-0h2-2-----2-2-0h2-2-----|-
-|-0h2-2-2---2-2-0h2-2-2---|-0h2-2-2---2-2-0h2-2-2---|-
-|---------0-------------0-|---------0-------------0-|-
-|-------------------------|-------------------------|-

[I don't think this part above is actually what is being played,
but it is correct for Any Time Now, and I think it sounds better]
VERSE:
-|-1-1-1-1-1-1-0-0-0-0-0-0-3-3-3-3-3-3-0-0-0-0-0-0-|-
-|-1-1-1-1-1-1-1-1-1-1-1-1-0-0-0-0-0-0-1-1-1-1-1-1-|-
-|-2-2-2-2-2-2-0-0-0-0-0-0-0-0-0-0-0-0-0-0-0-0-0-0-|-
-|-3-3-3-3-3-3-2-2-2-2-2-2-0-0-0-0-0-0-2-2-2-2-2-2-|-
-|-3-3-3-3-3-3-3-3-3-3-3-3-2-2-2-2-2-2-3-3-3-3-3-3-|-
-|-1-1-1-1-1-1-3-3-3-3-3-3-3-3-3-3-3-3-0-0-0-0-0-0-|-

GUITAR 2 (played w/ verse):
-|--------------------------------|-
-|--------------------------------|-
-|-----12b-10b-------------10b----|-
-|-15b---------12-10-12-12-----12-|-
-|--------------------------------|-
-|--------------------------------|-

-|-----------------------------------------------|-
-|-----------------------------------------------|-
-|-----------------------------------------------|-
-|-------------10h12-------10h12-------10b-12/15-|-
-|-------10h12-------10h12-------10h12-----------|-
-|-10h12-----------------------------------------|-
CHORUS:
-|-0-0-0-0---0-0-0--3-3-3-3---3-3-3--0-0-0-0---0-0-0--0-0-0-0---0-0-0-|-
-|-1-1-1-1---1-1-1--0-0-0-0---0-0-0--1-1-1-1---1-1-1--1-1-1-1---1-1-1-|-
-|-2-2-2-2---2-2-2--0-0-0-0---0-0-0--0-0-0-0---0-0-0--0-0-0-0---0-0-0-|-
-|-2-2-2-2---2-2-2--0-0-0-0---0-0-0--2-2-2-2---2-2-2--2-2-2-2---2-2-2-|-
-|-0-0-0-0---0-0-0--2-2-2-2---2-2-2--3-3-3-3---3-3-3--3-3-3-3---3-3-3-|-
-|------------------3-3-3-3---3-3-3--3-3-3-3---3-3-3--3-3-3-3---3-3-3-|-



INTERLUDE (during chorus)
-|--------------|-----------|-
-|--------------|-------13b-|-
-|--------------|-10/12-----|-
-|-12b-10----10-|-----------|-
-|--------12----|-----------|-
-|--------------|-----------|-

INTERLUDE:
-|-0---0-----0-0-0---0-----|-0---0-----0-0-0---0-----|-
-|-1---1-----1-1-1---1-----|-1---1-----1-1-1---1-----|-
-|-0h2-2-----2-2-0h2-2-----|-0h2-2-----2-2-0h2-2-----|-
-|-0h2-2-2---2-2-0h2-2-2---|-0h2-2-2---2-2-0h2-2-2---|-
-|---------0-------------0-|---------0-------------0-|-
-|-------------------------|-------------------------|-
VERSE:
-|-1-1-1-1-1-1-0-0-0-0-0-0-3-3-3-3-3-3-0-0-0-0-0-0-|-
-|-1-1-1-1-1-1-1-1-1-1-1-1-0-0-0-0-0-0-1-1-1-1-1-1-|-
-|-2-2-2-2-2-2-0-0-0-0-0-0-0-0-0-0-0-0-0-0-0-0-0-0-|-
-|-3-3-3-3-3-3-2-2-2-2-2-2-0-0-0-0-0-0-2-2-2-2-2-2-|-
-|-3-3-3-3-3-3-3-3-3-3-3-3-2-2-2-2-2-2-3-3-3-3-3-3-|-
-|-1-1-1-1-1-1-3-3-3-3-3-3-3-3-3-3-3-3-0-0-0-0-0-0-|-
GUITAR 2 (played w/ verse):
-|--------------------------------|-
-|--------------------------------|-
-|-----12b-10b-------------10b----|-
-|-15b---------12-10-12-12-----12-|-
-|--------------------------------|-
-|--------------------------------|-

-|-----------------------------------------------|-
-|-----------------------------------------------|-
-|-----------------------------------------------|-
-|-------------10h12-------10h12-------10b-12/15-|-
-|-------10h12-------10h12-------10h12-----------|-
-|-10h12-----------------------------------------|-
CHORUS:
-|-0-0-0-0---0-0-0--3-3-3-3---3-3-3--0-0-0-0---0-0-0--0-0-0-0---0-0-0-|-
-|-1-1-1-1---1-1-1--0-0-0-0---0-0-0--1-1-1-1---1-1-1--1-1-1-1---1-1-1-|-
-|-2-2-2-2---2-2-2--0-0-0-0---0-0-0--0-0-0-0---0-0-0--0-0-0-0---0-0-0-|-
-|-2-2-2-2---2-2-2--0-0-0-0---0-0-0--2-2-2-2---2-2-2--2-2-2-2---2-2-2-|-
-|-0-0-0-0---0-0-0--2-2-2-2---2-2-2--3-3-3-3---3-3-3--3-3-3-3---3-3-3-|-
-|------------------3-3-3-3---3-3-3--3-3-3-3---3-3-3--3-3-3-3---3-3-3-|-
INTERLUDE (during chorus):
-|-8--8-x------|---8---8--|-
-|----0-x-12---|----------|-
-|-------------|-9---9----|-
-|-------------|----------|-
-|-------------|----------|-
-|-------------|----------|-
SOLO:
-|-------------------------------------------------|-
-|-------------------------------------------------|-
-|---------------------------10h12p10-12b-10-------|-
-|-------10--12b-10----10-12-----------------12-10-|-
-|-10h12------------12-----------------------------|-
-|-------------------------------------------------|-

-|--------------------------------------------------------------|-
-|--------------------------------------------------------------|-
-|--------------------------------------------------------------|-
-|-------10--10-10-12b-10--------------------------10-12-10-12b-|-
-|-10h12------------------12-10-12-----------10-12--------------|-
-|----------------------------------10-12-14--------------------|-

-|-----------------------------------------------------|-
-|-------10-10/14-15-12-15/17-15-12-15-12--15p13p1210-|-
-|-10-12-----------------------------------------------|-
-|-----------------------------------------------------|-
-|-----------------------------------------------------|-
-|-----------------------------------------------------|-

-|----------------------------------------------------------------|-
-|------------------------10-12-/14--15-14-12---------------------|-
-|------------12/14-12-14---------------------12-10-9-11p9-9----9-|-
-|-------10--------------------------------------------------11---|-
-|-10h12----------------------------------------------------------|-
-|----------------------------------------------------------------|-

-|------------------------8-|-
-|------------------------8-|-
-|-----------12b------------|-
-|-------12------------10---|-
-|-12-14---------10h12------|-
-|--------------------------|-




Ваше мнение



Капча