I know this is right, because I play along with the cd,
but it's only the rhythm guitar part, I don't know the lead yet.
the timing's not down either
Verse
E|---------2-0---------------|
B|---------2-0---------------|
G|-------------4-4-2-2-------|
D|---2-2-2-----4-4-2-2-------|
A|---2-2-2-----2-2-0-0-------|
E|---0-0-0-------------------|
Chorus
E|---------------------------|
B|---------------------------|
G|---2-2-4-4-2-2-------------|
D|---2-2-4-4-2-2-------------|
A|---0-0-2-2-0-0-------------|
E|---------------------------|
Bridge
E|---------------------------|
B|---------------------------|
G|-----------2-2-4-4---------|
D|---2-2-4-4-2-2-4-4---------|
A|---2-2-4-4-0-0-2-2---------|
E|---0-0-2-2-----------------|




Ваше мнение



Капча