O.A.R.
Destination
Tabbed by: [email protected]
There are two guitar's in this song playing versions of this, i just combined them. It's
easy.
e--10-10-10-10--8-8--9/10--10-10-10-10--8-8--9/10--|
B--10-10-10-10--8-8--9/10--10-10-10-10--8-8--9/10--|
G--------------------------------------------------|
D--------------------------------------------------|
A--------------------------------------------------|
E -------------------------------------------------|
(Remeber I combined both version of it so there will be some of one during a part and
of the other during another part. I picked out the one to play by the one you hear in the lead.)
e--10-10-10-10--8-8--9/10--10-10--14-12-10-10-12-10-8-8-8-8-8-|
B--10-10-10-10--8-8--9/10--10-10------------------------------|
G-------------------------------------------------------------|
D-------------------------------------------------------------|
A-------------------------------------------------------------|
E ------------------------------------------------------------|
e--9/10--10-10--14-12-15-14-8-8-8-8-8--9/10-------------------|
B--9-10--10-10-------------------------9/10-------------------|
G-------------------------------------------------------------|
D-------------------------------------------------------------|
A-------------------------------------------------------------|
E ------------------------------------------------------------|
Question/Comments,
[email protected]




Ваше мнение



Капча