From: Matt [email protected]
Intro:
C G Am F
e--10-10-12-8-x-8-5-5----------------------------------
B--8--8-----8-x-8-5-5----------------------------------
G----------------------7b-5-----5-----5-5-7-7b-7-5h7p5-
D---------------------------5h7---5h7------------------
A------------------------------------------------------
E------------------------------------------------------
C G Am F
e------------------------------------------------------
B--------------------------5-6-8-8/10-8-6-5------------
G------------5-7b-5-5h7p5------------------------------
D------5-5h7-------------------------------------------
A--5h7-------------------------------------------------
E------------------------------------------------------
C G Am F
e------------------------------------------------------
B----------------------5-6-8-8-------------------------
G----------------4-5-7---------------------------------
D----------3-5-7---------------------------------------
A--2-3-5-7---------------------------------------------
E------------------------------------------------------
C G Am F
e--10b-8-8-10-12-8-8-7-8-8/10-8------------------------
B------------------------------------------------------
G------------------------------------------------------
D------------------------------------------------------
A------------------------------------------------------
E------------------------------------------------------
Chords for entire song:
C G Am F
Bridge hammer with Am




Ваше мнение



Капча