O.A.R. - Crazy Game of Poker
tabbed by Brett Colleran
intro
-10--10--10^8--x--10--5--5---------------------------------|
-8---8---------x--8---5--5---------------------------------|
----------------------------7^5------5-------5h7-8-7-5h7p5-|
---------------------------------5h7----5h7----------------|
-----------------------------------------------------------|
-----------------------------------------------------------|
-------------------------------------|
----------------------5-6-8-10-8-6-5-|
---------5h7--7^-5-5-----------------|
-----5h7-----------------------------|
-5h7---------------------------------|
-------------------------------------|
---------------------------0-1-3------1--|
--------------------0-1-3----------7--1--|
---------------0-2-----------------7--2--| Chords struck a
--------0-2-3----------------------7--3--| few times each,
-0-2-3-----------------------------5--3--| figure it out
--------------------------------------1--|

-10-8-8-10-8-8-7-8-10-8-| (Oh my...)
------------------------|
------------------------|
------------------------|
------------------------|
------------------------|
verse
--0---3---0---1--| Chord Progression
--1---0---1---1--| C, G, Am, F
--0---0---2---2--| Played fast, each chord struck
--2---0---2---3--| down down up up down
--3---2-------3--|
------3-------1--|
perhaps O.A.R.'s most well known song, this is just a sample of this band's
talent. If you like this song I urge you to check out their others!!!!




Ваше мнение



Капча