-- Chords Used --
c Am
------------------ -------------------|
------------------ -------------------|
-----5------------ ------2------------|
-----5------------ ------2------------|
----3------------- ------0------------|
------------------ -------------------|
G F
------------------ -------------------|
------------------ -------------------|
------------------ -----2-------------|
-----5------------ -------3-----------|
-----5------------ -------3-----------|
----3------------- -----1-------------|
--Lyrics with chord progression--
[C] [G]
Well in the end my friend we will all be together again
[Am] [F]
Clutchin onto my hand, in a valley with sand
[C]
were just livin again, in a while we will smile
[G] [Am] [F]
March on another mile, upon hallowed hills
[C] [G]
Tied to the land we'll be still, no ones ever gonna say a thing
[Am] [F]
And we'll be together, together again.
[C]
Lets take it to the city on down
[G] [Am] [F] Repeat as needed
Thats about it, its not perfect, but its close, have fun with it
[O.A.R. rules]




Ваше мнение



Капча