T. See http://www.olga.net/faq/ for more information. #
Date: Tue, 7 Dec 1999 14:12:06 -0800 (PST)
From: Cristian "'Sуcrates'" Franco
Subject: b/bettencourt_nuno/the_bumblebee.tab
BUMBLEBEE
By NUNO BETTENCOURT
Transcribed by Sуcrates
This is one of the most beautiful pieces which
I have listened to from Nuno, it is a really pretty
Composition.
The composition is at 4/4, but don't made the
Correct separation of the compasses. It is a very slow
Composition and easy to perform, but it gets one quick
Portion which could create you some difficulties.
There is a portion from which I am not very certain
That it be alright, but the rest I think that is
Right.
However, this is the basic idea of the
Composition, since Nuno uses a lot the bar in some
Portions to descend a few the tones, but I didn't
Denote those portions in the tab. If you are able to
Do any arrangement, or if I have been mistaken in
Anything, please send me your version, I will be you
Very grateful.
This composition performs with a Delay and Tune your
Guitar at D#.
Have fun:)
Legend:
^ = pull-off & hamer-on
~~~ = vibrato
X = dead note
1 o Ѕ = bend 1 o Ѕ tone
1- o Ѕ- = bend & release 1 o Ѕ tone
+1 o +Ѕ = prebend 1 o Ѕ tone
/ = slide up
\ = slide down
\\ = gliss down
// = gliss up
= artificial harmonic
..... = palm mute
~~~~~~~ ~~~~~~~~ ~~~~ 1 1- ~~~~~~
|----------------|------------------|-------------------|-----------------|
|/17----------\\-|-17-17^15-15\\----|--13^15-15\13--13--|----15-15-15-----|
|----------------|------------------|-------------------|--x--------------|
|----------------|------------------|-------------------|-x---------------|
|----------------|------------------|-------------------|-----------------|
|----------------|------------------|-------------------|-----------------|
1 1 Ѕ- ~~~~ 1
|-17--------------------------------|---17-19-^17--19--|----22--20^17-----|
|----15--15-15-15^17^13-------13\\--|--x---------------|-22---------------|
|-----------------------14^12-------|-x----------------|------------------|
|-----------------------------------|------------------|------------------|
|-----------------------------------|------------------|------------------|
|-----------------------------------|------------------|------------------|
From here to the mark, I am not very sure that it be
Alright. The Delay
Hinders a lot the work to the hearing.
|===> Ѕ- 1 +1-
|-21---^17--------17^15--------|-------------------|------15--------------|
|-----------20^17-------17^15--|-17^15-------15----|----15----15----------|
|------------------------------|-------17^14-------|--14------------------|
|------------------------------|-------------------|-x--------------------|
|------------------------------|-------------------|----------------------|
|------------------------------|-------------------|----------------------|
1- . . . . . . . . . . . .
|----------------|-------------------------------|------------------------|
|----13----13----|-15----17----16----15----13----|-15^13------------------|
|--14---14----14-|----14----14----14----14----14-|-------14-12-14^12---12-|
|-x--------------|-------------------------------|-------------------14---|
|----------------|-------------------------------|------------------------|
|----------------|-------------------------------|------------------------|
~~~~ Make a motorcycle with your bar





Ваше мнение



Капча