T. See http://www.olga.net/faq/ for more information. #
Date: Tue, 2 Nov 1999 13:18:47 -0800 (PST)
From: Cristian "'Sуcrates'" Franco
Subject: b/bettencourt_nuno/hope_the_train.tab
HOPE THE TRAIN
(NUNO BETTENCOURT)
Transcribed by Sуcrates
The truth is that this is a composition very easy
From Nuno, the
Rhythmic is extremely easy, but the solo is a little
Complex, as which it
There I'm not transcribed still. At the solo, Nuno
Uses an harmonizer to
Produce the effect than playing one note and arise it
One eighth. This
Hinders enough more the work to perform the solo, but
As soon as I transcribe
It, I will publish it. For the time being, this is the
Rhythmic guitar.
I hope that you have fun, and any suggestion, comment
Or correction don't
Hesitate to send it to my e-mail (please, somebody
Send me the lyrics of the
Song).
The song is at 4/4 and the guitar tuned at D#. Read
The
'How to Play it' section, at the end of the tablature.
Happiness And Hope The Train!!!!
Legend:
X = dead note
* = compass repeat
/\ = slide
Intro:
Verse:
|----4--------------------|-------------------------|---------------------|
|-------5--------6--------|----3--------------------|---------------------|
|-------------------6-----|-------3--------6--------|*-5--x--5--5-5/------|
|-2--------2--------------|-------------------5-----|*-5--x--5--5-5/------|
|-------------4--------4--|-1--------1--------------|--3--x--3--3-3/------|
|-------------------------|-------------3--------3--|---------------------|
|------------------|----------------|----------------|--------------------|
|------------------|----------------|----------------|--------------------|
|-10-x-10--10-10\--|----------------|----------------|--5-x-5--5-5\-------|
|-10-x-10--10-10\--|-5-x-5--5-5\----|-3-x-0-0--3-x-x-|--5-x-5--5-5\-------|
|-8--x-8---8--8-\--|-5-x-5--5-5\----|-3-x-2-2--3-x-x-|--3-x-3--3-3\-------|
|------------------|-3-x-3--3-3\----|-1-x-1-1--------|--------------------|
__________________ _________________
|1. |2.
|------------------|-----------------|---------------------|
|------------------|---------3-------|---------------------|
|-----1---1-------*|-----1-----1-----|--5--x--5--5-5--x-x--|
|---3---3---3-----*|---3---3-----3---|--5--x--5--5-5--x-x--|
|-1-----------1----|-1-------------1-|--3--x--3--3-3--x-x--|
|---------------1--|-----------------|---------------------|
|------------------|---------------|--------------------|-----------------|
|------------------|---------------|--------------------|-----------------|
|------------------|---------------|--------------------|--5-x-5--5-5\----|
|--6--x--6--6-6\---|--5-x-5--5-5\--|--3--x--0-0--3-x-x--|--5-x-5--5-5\----|
|--6--x--6--6-6\---|--5-x-5--5-5\--|--3--x--2-2--3-x-x--|--3-x-3--3-3\----|
|--4--x--4--4-4\---|--3-x-3--3-3\--|--1--x--1-1---------|-----------------|
Pre-Chorus:
|------------------|------------------|-------------------|----------------|
|------------------|------------------|-------------------|----------------|
|-----1--------4---|------------------|-------------------|----------------|
|---3---3----6---6-|------3-------3---|------3-------3----|-----3-------3--|
|-1--------4-------|----3-------3-----|----3-------3------|---3-------3----|
|------------------|--6-----6-5-----5-|--4-----4-5-----5--|-6-----6-5-----5|
|-----------------|-------------------|-------------------|
|-----------------|-------------------|-------------------|
|-----------------|-------------------|-------------------|
|-----3-------3---|------3-------3----|------3-------3----|
|---3-------3-----|----3-------3------|----3-------3------|
|-4-----4-3-----3-|--6-----6-5-----5--|--4-----4-5-----5--|
Chorus:
|------------------------|----------------|--------------|----------------|
|------------------------|----------------|--------------|----------------|
|-*---10-10\----10-10\--*|*-5-x--------5--|-5-x--------5-|---5-x----------|
|-*---10-10\----10-10\--*|*-5-x--3-3-x-5--|-5-x--3-3-x-5-|---5-x--5-5-x--6|
|-----8--8-\----8--8-\---|--3-x--3-3-x-3--|-3-x--3-3-x-3-|---3-x--5-5-x--6|
|-1-1/------1-1/---------|-------1-1-x----|------1-1-x---|--------3-3-x--4|
|------------------|
|------------------|
|--------8-8-x-5--*|
|--6-x---8-8-x-5--*|
|--6-x---6-6-x-3---|
|--4-x-------------|
"How to Play It":
[Intro]
[Verse]
[Pre-Chorus]
[Chorus]
[Verse]
[Pre-Chorus]
[Chorus]
[Intro]
Solo:
[Verse without
Repeating the
First part
Indicated with *]
End Solo
[Pre-Chorus]
[Chorus x 2]

=====
"Quedй desfallecido de escudriсar la verdad"
SУCRATES





Ваше мнение



Капча