Transcribed by Cyclone [[email protected]]

Intro[distortion]:
D|--------2----------------------------------------
A|-------------------7-----------5-----------------
E|--0--0----0--5--5-----5--3--3-----7--7--5--5--3--

Verse:
E5 E5 G5 G5 A5 A5 A5 A5
Рождественских снежинок нет
G5 A5 E5
Такая вот погода здесь
[Intro]
И кто-то жадно берет за ворот
Куда идти, хоть в лисьи норы лезь

Chorus: E5
С Hовым Годом, крошка!
A|-------------------------------------------
E|-----------------------3^-0--h3^-0--h3--0--

A5
С Hовым Годом, хэй
A|------------------------3-----3------------
E|--3^-0--h3^-0--h3--5-------5-----5---3--5--

D5 D5 G5 F#5
Подожди немножко
G|--------------------x---x---12-12--11------
D|--12---12-12--12----x---x---12-12--11------
A|--12---12-12--12----x---x---10-10---9------
E|--10---10-10--10---------------------------

G5 F#5 A5
Будет веселей.
G|--12---12-11-------------------------------
D|--12---12-11------7--------------7---------
A|--10---10--9---------7-----7--5-----7------
E|---------------5--------5--------------5---

Solo:

E|-----------------12------12---------------------------
B|--/12b13b12---12------12----10h12---------------------
G|----------------------------------12----14-/16--------
D|-------------------------------------14--------14-----
A|--------------------------------------------------14--

E|---------------------------------------------------------
B|--/12------12--------------------------------------------
G|------14--------12-----------------------------16b17r16--
D|-------------------14-------15-----------------16b17r16--
A|------------------------/17----18---12-12-14-------------

Verse:
Рождественских снежинок нет
Снегурку замели
И кто-то жадно берет за ворот
Замерзли "жигули"

[Chorus]

[Solo in G minor]

[jingle bells]+[Intro]

[Chorus]
D5 A5
Лунная дорожка станет холодней

End: G5




Ваше мнение



Капча