Song: ?So Few?
Artist: Nothingface
Album: Everyday Atrocity
Transcribed By: Bryan Bramlett ([email protected])

Tuning: 1/2 Step Down, Drop D

INTRO:
|------------------------------------------------------------|
|------------------------------------------------------------|
|------------------------------------------------------------|
|------------------------------------------------------------|
|------------------------------------------------------------|
|-20232-02-0232020232-02-0232020232-02-0232020232-02-0235320-|

MAIN RIFF:
|------------------------------------------------------------|
|------------------------------------------------------------|
|------------------------------------------------------------|
|-20232-02-0232020232-02-0232020232-02-0232020232-02-0235320-|
|-20232-02-0232020232-02-0232020232-02-0232020232-02-0235320-|
|-20232-02-0232020232-02-0232020232-02-0232020232-02-0235320-|

VERSE:
|------------------------------------------------------------|
|------------------------------------------------------------|
|------------------------------------------------------------|
|-20232-02-0232020232-02-0232020232-02-0232020232-02-0235320-|
|-20232-02-0232020232-02-0232020232-02-0232020232-02-0235320-|
|-20232-02-0232020232-02-0232020232-02-0232020232-02-0235320-|
PM..... .....

CHORUS:
|---------------------------------------------------------|
|---------------------------------------------------------|
|---------------------------------------------------------|
|-12-12-12-12-12-12-12-12-7-7-7-7-7-7-7-7-8-8-8-8-8-8-8-8-|
|-12-12-12-12-12-12-12-12-7-7-7-7-7-7-7-7-8-8-8-8-8-8-8-8-|
|-12-12-12-12-12-12-12-12-7-7-7-7-7-7-7-7-8-8-8-8-8-8-8-8-|

SOLO:
|------------------------|
|------------------------|
|-7/9--/12--/14--/7--/9-|
|------------------------|
|------------------------|
|------------------------|

INTERLUDE:
|----------------------------------------------------|
|----------------------------------------------------|
|----------------------------------------------------|
|----------------------------------------------------|
|-22-2-320-22-2-320-22-2-320-22-2-320-2320--2320-320-|
|-22-2-320-22-2-320-22-2-320-22-2-320-2320--2320-320-|
PM ... ... ... ...

FILL 1:
|-----------|
|-----------|
|-----------|
|-2-3-2-5-3-|
|-2-3-2-5-3-|
|-2-3-2-5-3-|

INTERLUDE 2:
|-----------------|
|-----------------|
|-----------------|
|-2-2-2-2-2-3-2-0-|
|-2-2-2-2-2-3-2-0-|
|-2-2-2-2-2-3-2-0-|

OUTRO:
|----------|
|----------|
|----------|
|----------|
|-22-2-320-|
|-22-2-320-|
PM ...




Ваше мнение



Капча