PERFECT PERSON
As recorded by Nothingface
(From the 1996 Album PACIFIER)
Music by Nothingface
Transcribed by Jason Wall
Tuning : half step down dropped c#,g#,c#,f#,a#,d#
this song is badass and i havent seen a tab for it yet
so here's what i came up with
during the verse play this with palm mutes pretty much
except the 2's are fast and the other guitar is just hitting opens
|---------------------------------------------|
|---------------------------------------------|
|---------------------------------------------|
|---------------------------------------------|
|-0-2-2-2-0-6-0-3-6-6--0-2-2-2-0-6-0-3-4-4----|
|-0-2-2-2-0-6-0-3-6-6--0-2-2-2-0-6-0-3-4-4----|
During this riff here he plays the 5's 10 times one time in there
|--------------------------------|
|--------------------------------|
|--------------------------------|
|---5-------6-6-6----------------|
|-0-3-4-----4-4-4-5-5-5-5-5-5----|
|-0---4-3b0-------5-5-5-5-5-5----|
3x
||----------------------------------------------||----|
||o--------------------------------------------o||----|
||----7-7-7-7---------7-7-7-7-------------------||----|
||----7-7-7-7---------7-7-7-7-------------------||----|
||o-0-5-5-5-5-6-6-6-0-5-5-5-5-6-6-6--3-x-x-2-2-o||----|
||--0---------6-6-6-0---------6-6-6--3-x-x-2-2--||----|
|---------------------------------------------------------|
|---------------------------------------------------------|
|---7-7-7-7---------7-7-7-7-------------------------------|
|---7-7-7-7---------7-7-7-7-------------------------------|
|-0-5-5-5-5-6-6-6-0-5-5-5-5-6-6-6--3-x-x-2-x-x-3-x-x-2----|
|-0---------6-6-6-0---------6-6-6--3-x-x-2-x-x-3-x-x-2----|
this part is faded another guitar is doing
while the bass plays this harmonic
PM| PM|
|-----------------------------------|
|-----------------------------------|
|-----------------------------------|
|-----------------------------------|
|-----------------------------------|
|-1p0-0-0-1p0-0-0-1p0------------|
heavy part here it has slight variations
but its not hard
PM-----------------------------|
|--------------------------------|
|--------------------------------|
|--------------------------------|
|--------------------------------|
|-1-0-0--0-1-0-0--0-1-0-0-0------|
|-1-0-0--0-1-0-0--0-1-0-0-0------|
this part is weird
i wrote 2 ways to play
cause i cant really tell
what he's playing
|------first way---------| |---------second way--------|
|--------------------------------------------------------|
|--------------------------------------------------------|
|--------------------------------------------------------|
|-----------------------------2-2-2---2-2-2---2-2-2-2----|
|-3-3-3-3-3-3-3-3-3-3-3-3--------------------------------|
|-2-2-2-0-2-2-2-0-2-2-2-2-----2-2-2-0-2-2-2-0-2-2-2-2----|
and the part after this i have no idea what the hell he is playing
if anyone knows plz email me at [email protected]
Tablature Legend
----------------
p - pull-off
b - bend
- natural harmonic
x - on rhythm slash represents muted slash
***************************************************************************************
* Generated using Power Tab Editor by Brad Larsen - http://powertab.guitarnetwork.org *
***************************************************************************************




Ваше мнение



Капча