Song: Patricide
Artist: Nothingface
Album: Skeletons
Tabbed by: Christian / [email protected]
/ - Slide up
- Slide down
PM - Palm mute
Tuning: C G C F A D
I didn't tab the clean parts cuz i suck at tabbing those..ill tab em soon though hopefully.

Chorus
|--------------------------------------------------------------------------|
|--------------------------------------------------------------------------|
|-13/15-15-15-15-15--13/15-15-15-15-16-16--13/15-15-15-15------------------| x1
|----------------------------------------------------------11-11-11-11-9-9-|
|-11/13-13-13-13-13--11/13-13-13-13-14-14--11/13-13-13-13--11-11-11-11-9-9-|
|----------------------------------------------------------11-11-11-11-9-9-|
|----------------------------------------------------------------------------|
|----------------------------------------------------------------------------|
|-13/15-15-15-15-15--13/15-15-15-15-16-16--13/15-15-15-15--------11-11-11-11-| x1
|----------------------------------------------------------11-11--9--9--9--9-|
|-11/13-13-13-13-13--11/13-13-13-13-14-14--11/13-13-13-13--11-11--9--9--9--9-|
|----------------------------------------------------------11-11--9--9--9--9-|
|--------------------------------------------------------------------------|
|--------------------------------------------------------------------------|
|-13/15-15-15-15-15--13/15-15-15-15-18-18--13/15-15-15-15------------------| x1
|----------------------------------------------------------11-11-11-11-9-9-|
|-11/13-13-13-13-13--11/13-13-13-13-16-16--11/13-13-13-13--11-11-11-11-9-9-|
|----------------------------------------------------------11-11-11-11-9-9-|
|-----------------------------------------------------------------------------|
|-----------------------------------------------------------------------------|
|-13/15-15-15-15-15--13/15-15-15-15-16-16--13/15-15-15-15--------11-11-11-11-| x1
|----------------------------------------------------------11-11--9--9--9--9-|
|-11/13-13-13-13-13--11/13-13-13-13-14-14--11/13-13-13-13--11-11--9--9--9--9-|
|----------------------------------------------------------11-11--9--9--9--9-|
|------|
|------|
|------| x1
|--9--|
|--9--|
|--9--|
|----------|
|----------|
|-11-11-11-| x1
|--9--9--9-|
|--9--9--9-|
|--9--9--9-|
Chorus
|--------------------------------------------------------------------------|
|--------------------------------------------------------------------------|
|-13/15-15-15-15-15--13/15-15-15-15-16-16--13/15-15-15-15------------------| x1
|----------------------------------------------------------11-11-11-11-9-9-|
|-11/13-13-13-13-13--11/13-13-13-13-14-14--11/13-13-13-13--11-11-11-11-9-9-|
|----------------------------------------------------------11-11-11-11-9-9-|
|----------------------------------------------------------------------------|
|----------------------------------------------------------------------------|
|-13/15-15-15-15-15--13/15-15-15-15-16-16--13/15-15-15-15--------11-11-11-11-| x1
|----------------------------------------------------------11-11--9--9--9--9-|
|-11/13-13-13-13-13--11/13-13-13-13-14-14--11/13-13-13-13--11-11--9--9--9--9-|
|----------------------------------------------------------11-11--9--9--9--9-|
|--------------------------------------------------------------------------|
|--------------------------------------------------------------------------|
|-13/15-15-15-15-15--13/15-15-15-15-18-18--13/15-15-15-15------------------| x1
|----------------------------------------------------------11-11-11-11-9-9-|
|-11/13-13-13-13-13--11/13-13-13-13-16-16--11/13-13-13-13--11-11-11-11-9-9-|
|----------------------------------------------------------11-11-11-11-9-9-|
|-----------------------------------------------------------------------------------------|
|-----------------------------------------------------------------------------------------|
|-13/15-15-15-15-15--13/15-15-15-15-16-16--13/15-15-15-15--------11-11-11-11--10-10-10-10-| x1
|----------------------------------------------------------11-11--9--9--9--9---8--8--8--8-|
|-11/13-13-13-13-13--11/13-13-13-13-14-14--11/13-13-13-13--11-11--9--9--9--9---8--8--8--8-|
|----------------------------------------------------------11-11--9--9--9--9---8--8--8--8-|
Fill
|-------------|
|-------------|
|-------------| x1
|-------------|
|-------------|
|-4-3-3-4-3-3-|
Breakdown
|-------------------------------------------------------------------|
|-------------------------------------------------------------------|
|-11----1715-14-15-15-------1816---1614--11----1715-14-15-15----| x1
|-11--------------------1-------------------11--------------------1-|
|-9-----1513-12-13-13--1----1614-x-1412---9----1513-12-13-13--1-|
|-----------------------1--------------------0--------------------1-|
|---------------------------------------------------------------------|
|---------------------------------------------------------------------|
|-8/10-10-10-11-11--11----11--11/15-15-15-15-------1715-14-15-15--11-| x1
|-------------------11------------------------1--------------------11-|
|-6/-8--8--8--9--9--9-----9---9-/13-13-13-13--1----1513-12-13-13--9--|
|---------------------------------------------1-----------------------|
|--------------------|
|--------------------|
|-11--11/15-15-15----| x4
|------------------1-|
|-9---9-/13-13-13--1-|
|------------------1-|
|-----------------------------------------------------|
|-----------------------------------------------------|
|-----------------------------------------------------| x1
|-1-1-1-1-1-1-1-1-1-1--------------4--6-6-6-6-6-6-6-6-|
|-1-1-1-1-1-1-1-1-1-1--2-------2-4----4-4-4-4-4-4-4-4-|
|-1-1-1-1-1-1-1-1-1-1----1-1-1--------4-4-4-4-4-4-4-4-|
PM- - - - - - - - - - - - - - - - - -
|--------------------------------------------------------|
|--------------------------------------------------------|
|--------------------------------------------------------| x3
|----------------------9---9--------------4--6-6-6-6-6-6-|
|---5----------------0-0-0-0--2-------2-4----4-4-4-4-4-4-|
|-5---5-3--5-3--0/9-------------1-1-1--------4-4-4-4-4-4-|
PM - - - - - -
|---------------------------------------------------------------------|
|---------------------------------------------------------------------|
|-----------------------------7-9-9-9-9-11-11-11-11-13-13-13-13-13-13-| x1
|----------------------9---9--7-9-9-9-9-11-11-11-11-13-13-13-13-13-13-|
|---5----------------0-0-0-0--5-7-7-7-7-9--9--9--9--11-11-11-11-11-11-|
|-5---5-3--5-3--0/9---------------------------------------------------|
|----------|
|----------|
|-11-11-11-| x1
|--9--9--9-|
|--9--9--9-|
|--9--9--9-|


Ваше мнение



Капча