song: one thing
band: nothingface
cd: pacifier
tabbed by snakefist [email protected]

in my last tab of this song i had the tuning wrong its supposed to be
low to high: b e a d g

intro:
g---------10-10-10-----10-10-10---10-10---
d----9-9-9--------9-9-9--------9-9--------
a-----------------------------------------
e-----------------------------------------
b-----------------------------------------

heavy part
g-----------------------------------------
d-----------------------------------------
a-----------------------------------------
e-------1-1-1-----1-1-1----1-1------------
b--0-0-0-----0-0-0------0-0---------------

verse:
g-----------------------------------------
d-----------------------------------------
a-----------------------------------------
e----------------------------0-9/10-------
b-0-0-320-0-320-0-320-0-320-0-------------

breakdown in the middle:
g-----------------------------------------
d-----------------------------------------
a-----------------------------------------
e-----------------------------------------
b--1-0~~~~~1-0~~~~~1-0~~~~1-0~~~~~--------
let the open b ring

go back to intro
for the fast part just play the heavy part from the start faster

im pretty sure this is correct but if you disagree please email me




Ваше мнение



Капча