Drop D tuning:

Just play this alot. im not sure about it so please correct me if u see a mistake.

|-----------------------------------------------------------------|
|-----------------------------------------------------------------|
|-----------------------------------------------------------------|
|-7-0-0-7-0-0-7-0-0-7-0-0-7-0-7-0-6-0-0-6-0-0-6-0-0-6-0-0-6-0-6-0-|
|-7-0-0-7-0-0-7-0-0-7-0-0-7-0-7-0-6-0-0-6-0-0-6-0-0-6-0-0-6-0-6-0-|

|-----------------------------------------------------------------|
|-----------------------------------------------------------------|
|-----------------------------------------------------------------|
|-3-0-0-3-0-0-3-0-0-3-0-0-3-0-3-0-4-0-0-4-0-0-4-0-0-4-0-0-10-10---|
|-3-0-0-3-0-0-3-0-0-3-0-0-3-0-3-0-4-0-0-4-0-0-4-0-0-4-0-0-10-10---|




Ваше мнение



Капча