Author/Artist: Nothingface
Title: Everlasting Godstopper
Album: Violence
Transcribed by: John Wilson
Email: [email protected]

Tune down 1/2 step.
Dropped D Tuning

Intro (play 2x)
(Riff-1)
E|-----------------------------------|-------------------------------------|
B|-----------------------------------|-------------------------------------|
G|-----------------------------------|-------------------------------------|
D|-----------------------------------|-------------------------------------|
A|-----------------------------------|-------------------------------------|
E|--6-0-0-0-6-0-0-4-6-0-4-6-0-7-6-4--|--6-0-0-7-0-0-10-0-0-7-0-0-6-4-6-/7--|
S
E|-----------------------------------|-----------------------------------|
B|-----------------------------------|-----------------------------------|
G|-----------------------------------|-----------------------------------|
D|-----------------------------------|-----------------------------------|
A|-----------------------------------|-----------------------------------|
E|--6-0-0-0-6-0-0-4-6-0-4-6-0-7-6-4--|--6-6-6-7-7-7-2-2-2-1-1-1-0-0-5-5--|(end riff 1)



(Riff-2) today I set aside a friend...........
E|-----------------------------------|-------------------------------------|
B|-----------------------------------|-------------------------------------|
G|-----------------------------------|-------------------------------------|
D|-----------------------------------|-------------------------------------|
A|--6-------6-----4-6---4-6---7-6-4--|--6-----7-----10-----7-----6-4-6-/7--|
D|--6-0-0-0-6-0-0-4-6-0-4-6-0-7-6-4--|--6-0-0-7-0-0-10-0-0-7-0-0-6-4-6-/7--|
S
E|-----------------------------------|------------------------------------|
B|-----------------------------------|------------------------------------|
G|-----------------------------------|------------------------------------|
D|-----------------------------------|------------------------------------|
A|--6-------6-----4-6---4-6---7-6-4--|---6-6-6-7-7-7-2-2-2-1-1-1-0-0-5-5--|
D|--6-0-0-0-6-0-0-4-6-0-4-6-0-7-6-4--|---6-6-6-7-7-7-2-2-2-1-1-1-0-0-5-5--|(end riff 2)
* *
(*= change to 3rd fret
when played 4th time)

Play Riff-2 for the verses, palm mute the open string during the verses.
(Riff-3) It's the same, but it's OK in your eyes........
E|-----------------------------------|-----------------------------------|
B|-----------------------------------|-----------------------------------|
G|-----------------------------------|-----------------------------------|
D|-----------------------------------|-----------------------------------|
A|--5-5-3-5-5-3-5-5-3-5-5-3-5-5-3-5--|--6-6-3-6-6-3-6-3-3-6-6-5-6-6-3-3--|
D|--5-5-3-5-5-3-5-5-3-5-5-3-5-5-3-5--|--6-6-3-6-6-3-6-3-3-6-6-5-6-6-3-3--|
(---palm mute---)E|-----------------------------------|-------------------------------------|
B|-----------------------------------|-------------------------------------|
G|-----------------------------------|-------------------------------------|
D|-----------------------------------|-------------------------------------|
A|--5-5-3-5-5-3-5-5-3-5-5-3-5-5-3-5--|--6-6-3-6-6-3-6-3-5-6-6-6-8-8-10-10--|
D|--5-5-3-5-5-3-5-5-3-5-5-3-5-5-3-5--|--6-6-3-6-6-3-6-3-5-6-6-6-8-8-10-10--|(end riff 3)
(----palm mute----) (riff 4) Why cant you believe..............
E|-----------------------------------|-------------------------------------|
B|-----------------------------------|-------------------------------------|
G|--11--------------7-------5--------|--4---------------5-------7----------|
D|-----------------------------------|-------------------------------------|
A|--9---------------5-------3--------|--2---------------3-------5----------|
D|-----------------------------------|-------------------------------------|
E|------------------------------|-----------------------------|
B|--7------7--------------------|-----------------------------|
G|--6------6-------------5-5-5--|--11-----------/13------/14--|
D|--4------4------5-5-5---------|-----------------------------|
A|--4------4--x---5-5-5--3-3-3--|--9------------/11------/12--|
D|--4------4--x---5-5-5---------|-----------------------------| E|-----------------------------|--------------------------|-------------------|
B|-----------------------------|--------------------------|-------------------|
G|--/16---------/17-----/19----|--18--18--18--18/19--17---|-------------------|
D|-----------------------------|--------------------------|--3-3-3-2-2-2-1-1--|
A|--/14---------/15-----/17----|--16--16--16--16/17--15---|--3-3-3-2-2-2-1-1--|
D|-----------------------------|--------------------------|--3-3-3-2-2-2-1-1--|(end riff 4)
(riff 5)
E|-----------------------|-------------------------------|
B|-----------------------|-------------------------------|
G|--7-7-7-7-7-7-7--------|--7-7-7-7-7-7-7----------------|
D|--7-7-7-7-6-6-6-2-2-2--|--7-7-7-7-6-6-6-6-6-6-6h7-6-4--|
A|--5-5-5-5-5-5-5-2-2-2--|--5-5-5-5-5-5-5-6-6-6-6h7-6-4--|
D|----------------2-2-2--|----------------6-6-6-6h7-6-4--|(end riff 5)

(riff 5a) This is played with riff 5 enter the 5th time its played
E|---------------------------------------|
B|---------------------------------------|
G|--11--11--11--11----11--11--11/14--13--|
D|---------------------------------------|
A|--9---9---9---9-----9---9---9-/12--11--|
D|---------------------------------------|
sE|------------------------------------------------------|
B|------------------------------------------------------|
G|--11--11--11--11----11--11--11--13-13-13-13-14-14-14--|
D|------------------------------------------------------|
A|--9---9---9---9-----9---9---9---11-11-11-11-12-12-12--|
D|------------------------------------------------------|(end riff5a)
E|-----------------------------------|
B|-----------------------------------|
G|-----------------------------------|
D|-----------------------------------|
A|--7-6-4-7-6-4-7-6-4-7-6-4-7-6-4-7--|
D|--7-6-4-7-6-4-7-6-4-7-6-4-7-6-4-7--| today I set aside a friend..........
E|-----------------------------------|-------------------------------------|
B|-----------------------------------|-------------------------------------|
G|-----------------------------------|-------------------------------------|
D|-----------------------------------|-------------------------------------|
A|--6-------6-----4-6---4-6---7-6-4--|--6-----7-----10-----7-----6-4-6-/7--|
D|--6-0-0-0-6-0-0-4-6-0-4-6-0-7-6-4--|--6-0-0-7-0-0-10-0-0-7-0-0-6-4-6-/7--|
S
E|-----------------------------------|----------------------------------|
B|-----------------------------------|----------------------------------|
G|-----------------------------------|----------------------------------|
D|-----------------------------------|-------------------------------5--|
A|--6-------6-----4-6---4-6---7-6-4--|---6-6-6-7-7-7-2-2-2-1-1-1-0-0-5--|
D|--6-0-0-0-6-0-0-4-6-0-4-6-0-7-6-4--|---6-6-6-7-7-7-2-2-2-1-1-1-0-0-5--| (outro)
E|---------------------------|---------------------------------|
B|---------------------------|---------------------------------|
G|---------------------------|------------------0-----0-----0--|
D|----2-0---2-0---2-0---2-0--|----2-0---2-0---2-----2-----2----|
A|---------------------------|---------------------------------|
D|--0-----4-----3-----6------|--0-----3-----5-----4-----6------|




Ваше мнение



Капча