Artist: Nothingface
Song: Ether
Album: Skeletons
Tabbed by: InertZero0 ([email protected])
Tuning: Drop D, One Half Step Down (Db, Ab, Db, Gb, Bb, Eb)
This is not my tab. It is Bryan Bramlett's. His tab was out or order and I had
to re-tab it and put it in the correct order. I'm sure there are many people who
looked at it and got confused. You guys can look at is and figure out number of
times to play each riff and what effects to use.
Intro/Pre-Chorus
|-----------------------------------------------|
|-----------------------------------------------|
|-----------------------------------------------|
|-----------------------------------------------|
|-3---2---3---2---3p2---3---2---3---2---3p2-----|
|---3---3---3---3-----0---0---0---0---0-----3/7-|
|-----------------------------------------------------------|
|-----------------------------------------------------------|
|-----------------------------------------------------------|
|-----------------------------------------------------------|
|-7-----7-----7-----7-----7---7---5-----5-----5-----5555555-|
|-7-7-7-7-7-7-7-7-7-7-7-7-7-7-7-7-7-7-7-7-7-7-5-5-5-5555555-|
pm . . . . . . . . . . . . . . . .
Verse Part A
|---------------------------------|
|---------------------------------|
|---------------------------------|
|-----------------------5-5-5-5-5-|
|-7-0-0-5-0-7-0-8-0-8-0-3-3-3-3-3-|
|-----------------------3-3-3-3-3-|
Verse Part B
|---------------------------------|
|---------------------------------|
|---------------------------------|
|-7-----5---7-----------5-5-5-5-5-|
|---0-0---0---0-8-0-8-0-3-3-3-3-3-|
|-----------------------3-3-3-3-3-|
Post-Verse
|-------------------------------------|
|-------------------------------------|
|-----------10-10-10-10---------------|
|-7-7-7-5-7-10-10-10-10-10-10-9-10/12-|
|-7-7-7-5-7--8--8--8--8-10-10-9-10/12-|
|-7-7-7-5-7-------------10-10-9-10/12-|
Intro/Pre-Chorus
Chorus:
|------------------------------------------------------------------|
|-5555555555555555--------------------------------------3333333333-|
|-2222222222222222777777777777777799999999999999994444442222222222-|
|-3333333333333333XXXXXXXXXXXXXXXX77777777777777772222220000000000-|
|-----------------555555555555555577777777777777772222220000000000-|
|---------------------------------77777777777777772222220000000000-|
|--------------------------------------------------------------|
|-5555555555555555--------------------------------121212121212-|
|-222222222222222277777777777777779999999999999999-X-X-X-X-X-X-|
|-3333333333333333XXXXXXXXXXXXXXXX7777777777777777-9-9-9-9-9-9-|
|-----------------55555555555555557777777777777777-------------|
|---------------------------------7777777777777777-------------|
|----------------------|
|-10101010101010101010-|
|--X-X-X-X-X-X-X-X-X-X-|
|--7-7-7-7-7-7-7-7-7-7-|
|----------------------|
|----------------------|
Post-Chorus 1
|------------------------------|
|------------------------------|
|-5-5-5--5-4-4-5-5-5-5-5-5-5-4-|
|-3-3-3--3-2-2-X-X-X-X-X-X-X-X-|
|-3-3-3--3-2-2-3-3-3-3-3-3-3-2-|
|-3-3-3--3-2-2-----------------|
Verse Part A
Intro/Pre-Chorus
Chorus
Post-Chorus 2
|-------------------------------------|
|-------------------------------------|
|-5-5-5--5----------------------------|
|-3-3-3--3-22222210101010101010101010-|
|-3-3-3--3-22222210101010101010101010-|
|-3-3-3--3-22222210101010101010101010-|
pm ..........................
INTERLUDE:
|--------------------------------------------------------|
|--------------------------------------------------------|
|------------5-5-54-4-4-4/5-5-5-5/7-7-7-7-7-7-7-7-7-7-7-|
|------------X-X-X-X-X-X-X-X-X-X-X-X-X-X-X-X-X-X-X-X-X-X-|
|-0-00-0h2-2-3-3-32-2-2-2/3-3-3-3/5-5-5-5-5-5-5-5-5-5-5-|
|-0-00-0h2-2---------------------------------------------|
|----------------------------------------------------------|
|----------------------------------------------------------|
|-----------10-10-109-9-9-97-7-7-75-5-5-54-4-4-4-4-4-4-|
|------------X--X--X-X-X-X-X-X-X-X-X-X-X-X-X-X-X-X-X-X-X-X-|
|-2-2-2/3-3--8--8—-87-7-7-75-5-5-53-3-3-32-2-2-2-2-2-2-|
|-2-2-2/3-3------------------------------------------------|
|--------------------------------------------------------------|
|--------------------------------------------------------------|
|-----------10-10-109-9-9-9/12-12-12-127-7-7-7/9-9-9-9-9-9-9-|
|---------5--X--X--X-X-X-X-X--X--X--X--X-X-X-X-X-X-X-X-X-X-X-X-|
|-3-3-3/5-5--8--8—-87-7-7-7/10-10-10-105-5-5-5/7-7-7-7-7-7-7-|
|-3-3-3/5-5----------------------------------------------------|
|---------0-0-0------------------------------|
|---------0-0-0------------------------------|
|---------0-0-0------------------------------|
|-5---3---3-3-3--2-2-2-2-2-2-2-2-2-2-2-2-5-4-|
|-5---3---3-3-3--2-2-2-2-2-2-2-2-2-2-2-2-3-2-|
|-5---3---3-3-3--2-2-2-2-2-2-2-2-2-2-2-2-----|
pm . . . . . . . . . . . .
Verse Part A
Chorus
Post-Chorus 3
|-------|
|-------|
|-------|
|-5-5-5-|
|-3-3-3-|
|-3-3-3-|




Ваше мнение



Капча