Band: nothingface
Song: Deprive

Tabber: John Cukras
Email: [email protected]

Tuning: C G C F A D

Riff 1:
D-----------------------------
A-----------------------------
F-----------------------------
C----------------------444444-
G------------------1/2-222222-
C-00000-00000-000--1/2--------
pm..... ..... ...

Riff 2: 1 2 3
D-----------------------------------------------------------------
A-----------------------------------------------------------------
F-----------------------------------------------------------------
C---------555-777----------555-777-------555-777------------------
G---------333-555------7---333-555---7---333-555----1-0-3/5-0-5/7-
C-000000---------------7-------------7--------------1-0-3/5-0-5/7-
pm......

Riff 2 (1st part)

Riff 1

Riff 2 (All)

Riff 3:
D---------------------------------------------------------------------
A---------------------------------------------------------------------
F---------------------------------------------------------------------
C------5/4/5---------------------------------------5/4/5--------5/4/5-
G------3/2/3---------------------------------------3/2/3--------3/2/3-
C-232----------00000000-232-000000-232-00000---232---------232--------
........ ... ...... ... .....
Riff 1

Riff 2




Ваше мнение



Капча