Song: Defaced
Band: Nothingface
Album: Pacifier
Tabbed by: [email protected]
Tune down 1/2 step Drop D (Db Ab Db Gb Bb Eb)

Intro
Db|--------------------------------|
Ab|--------------------------------|
Db|--------------------------------|
Gb|-0-3-4-3------------------------|
Bb|-0-3-4-3------------------------|
Eb|-0-3-4-3--0-3-0-0-3-0-0-3-0-3-0-|
PM . . . . . . . . . . .

Db|-------------------------|
Ab|-------------------------|
Db|-------------------------|
Gb|-0-3-4-3--------60060666-|
Bb|-0-3-4-3--------60060666-|
Eb|-0-3-4-3--0-3-0-60060666-|
PM . . . .. .

Db|--------------------------------|
Ab|--------------------------------|
Db|--------------------------------|
Gb|--------------------------------|
Bb|--------------------------------|
Eb|-0-3-4-3~-0-3-4-3-0-3-4-3-0-3-4-|
PM . . . . . . . . . . . . . .

Main Riff
Db|--------------------------------|
Ab|--------------------------------|
Db|--------------------------------|
Gb|-0-3-4-3------------------------|
Bb|-0-3-4-3------------------------|
Eb|-0-3-4-3--0-3-4-3-0-3-4-3-0-3-4-|
PM . . . . . . . . . . .

Db|-------------------------|
Ab|-------------------------|
Db|-------------------------|
Gb|-0-3-4-3--------60060666-|
Bb|-0-3-4-3--------60060666-|
Eb|-0-3-4-3--0-3-4-60060666-|
PM . . . .. .

Db|--------------------------------|
Ab|--------------------------------|
Db|--------------------------------|
Gb|-0-3-4-3--------600600600600666-|
Bb|-0-3-4-3--------600600600600666-|
Eb|-0-3-4-3--0-3-4-600600600600666-|
PM . . . .. .. .. ..

Verse
Db|--------------------|
Ab|--------------------|
Db|--------------------|
Gb|-33333--333444-2--2-|
Bb|-33333--333444-2--2-|
Eb|-33333--333444-2--2-|
PM .... ......

Fill
Db|----|
Ab|----|
Db|----|
Gb|-3-|
Bb|-3-|
Eb|-3-|

Bridge
Db|--------------|---|
Ab|--------------|---|
Db|--------------|---|
Gb|-2-1--6-5-5-3-|-2-|
Bb|-2-1--6-5-5-3-|-2-|
Eb|-2-1--6-5-5-3-|-2-|

End on
Db|---|
Ab|---|
Db|---|
Gb|-2-|
Bb|-2-|
Eb|-2-|




Ваше мнение



Капча