Band: Nothingface
Song: Carousel

Tabber: John Cukras
Email: [email protected]

Tuning: Drop D

Riff 1:
E-------------------------------------------------------------------------------------------------------------
B-------------------------------------------------------------------------------------------------------------
G-------------------------------------------------------------------------------------------------------------
D-------------------------------------------------------------------------------------------------------------
A-5----5---444--3/2------2/3------3/2------6/7777-3/2------2/3------3/2------55----555------3/2------2/3------
D-5-00-5-0-444--3/2-0000-2/3-0000-3/2-0000-6/7777-3/2-0000-2/3-0000-3/2-0000-55-00-555-0000-3/2-0000-2/3-0000-
pm .. . .... .... .... .... .... .... .. .... .... ....

Continued:
E------------------------------------------------------
B------------------------------------------------------
G------------------------------------------------------
D------------------------------------------------------
A-3/2------6/7777-3/2------2/3------3/2------55----555-
D-3/2-0000-6/7777-3/2-0000-2/3-0000-3/2-0000-55-00-555-
pm .... .... .... .... ..

Riff 2:
E--------------------------------------------------------
B--------------------------------------------------------
G--------------------------------------------------------
D--------------------------------------------------------
A-----3------22-----3----6/777-----3-----22-----55----55-
D-000-3-0000-22-000-3-00-6/777-000-3-000-22-000-55-00-55-
pm... .... ... .. ... ... ... ..

Riff 3:
E------------------------------
B------------------------------
G------------------------------
D-----2-1----6-5---------------
A-1--------5----------33-33-33-
D-1--------5----------33-33-33-

Riff 4:
E--------------------------------
B--------------------------------
G--------------------------------
D--------------------------------
A-0-3/5--0-7/9--0-3/5--33----33--
D-0-3/5--0-7/9--0-3/5--33-00-33--
pm ..

Riff 1

Riff 3

Riff 4

Riff 5:
E--------------------------------
B--------------------------------
G--------------------------------
D--------------------------------
A--------------------------------
D-0-99-8-0-77-6-0-55-4-0-3-2-2-1-

Riff 6:
E--------------------------------
B--------------------------------
G--------------------------------
D--------------------------------
A-0-99-8-0-77-6-0-55-4-0-3-2-2-1-
D-0-99-8-0-77-6-0-55-4-0-3-2-2-1-

Riff 7:
E-------------------------------------------------------------------
B-------------------------------------------------------------------
G-------------------------------------------------------------------
D-------------------------------------------------------------------
A-0-2-0-2-0-2-0-2-0-4-0-4-0-4-0-4-0-4--0-2-0-2-0-2-0-2-0-2----------
D-0-2-0-2-0-2-0-2-0-4-0-4-0-4-0-4-0-4--0-2-0-2-0-2-0-2-0-2-4444-3-2-
pm. . . . . . . . . . . . . . . . . . . . . . . . . . . . .... . .

Riff 4

Riff 1




Ваше мнение



Капча