Song: Can't Wait for Violence
Artist: Nothingface
Album: Violence (2000)
Tabbed by: Christian / [email protected]
Tuning: A# F A# D# G C
Whoohoo what a great tab! Play it and see for yourself!
/ - Slide up
- Slide down
PM - Palm mute notes that have a - under them

Intro (clean)
|-------------------------------------------------------------------|
|-------------------------------------------------------------------|
|---0-----0-----0-----0-----0-----0-----0-----0-----0-----0-----0---|
|-----0-----0-----0-----0-----0-----0-----------------0-----0-----0-|
|-0-----1-----3-----------0-----1-----3---5-----1-0-----1-----3-----|
|-------------------5-----------------------5-----------------------|
|---------------------------|
|---------------------------|
|---0-----0-----0-----0-----| x1
|-----0-----0-----0---------|
|-------0-----1-----3---5---|
|-5-----------------------5-|
Verse (distortion)
|----------------------------------------------------------------------------------|
|----------------------------------------------------------------------------------|
|-----------7-7-7-74/7-7-7-7------------------------------7-7-74/8-8-8-8-8-8-8-8-| x6
|-0-0--0--0--------------------0-0-2-3-0-0-1-2-3-0-0--0--0-----------------7-7-7-7-|
|-0-0--0--0-5-5-5-52/5-5-5-5--0-0-2-3-0-0-1-2-3-0-0--0--0-5-5-52/6-6-6-6-6-6-6-6-|
|-0-0--0--0--------------------0-0-2-3-0-0-1-2-3-0-0--0--0-------------------------|
PM- - - - - - - - - - - - - - - - -
Bridge (it's easier if you slide)
|------------------------------------------------------------|
|------------------------------------------------------------|
|-9-9-5-5-------9-9-5-5-------9-9-5-5-------9-9-5-5--11-11-7-| x4
|------------------------------------------------------------|
|-7-7-3-3-0-0-0-7-7-3-3-0-0-0-7-7-3-3-0-0-0-7-7-3-3--9--9--5-|
|---------0-0-0---------0-0-0---------0-0-0------------------|
PM - - - - - - - - -
Fill
|----------------|
|----------------|
|-9-9--9--5-5--5-| x1
|----------------|
|-7-7--7--3-3--3-|
|----------------|
Chrous
|---------0-------------0----------0-------------------------------|
|-3-3-3-3-3-3-3-3-3-3-3-3--4-4-4-4-4-4-4-4-4-4-4-------------------|
|-2-2-2-2-2-2-2-2-2-2-2-2--3-3-3-3-3-3-3-3-3-3-3-------------------| x4
|-0-0-0-0-0-0-0-0-0-0-0-0--1-1-1-1-1-1-1-1-1-1-1-------------------|
|-0-0-0-0-0-0-0-0-0-0-0-0--1-1-1-1-1-1-1-1-1-1-1-0-0-2-3-0-0-1-2-3-|
|-0-0-0-0-0-0-0-0-0-0-0-0--1-1-1-1-1-1-1-1-1-1-1-0-0-2-3-0-0-1-2-3-|
PM - - - - - - - - -
Verse
|----------------------------------------------------------------------------------|
|----------------------------------------------------------------------------------|
|-----------7-7-7-74/7-7-7-7------------------------------7-7-74/8-8-8-8-8-8-8-8-| x6
|-0-0--0--0--------------------0-0-2-3-0-0-1-2-3-0-0--0--0-----------------7-7-7-7-|
|-0-0--0--0-5-5-5-52/5-5-5-5--0-0-2-3-0-0-1-2-3-0-0--0--0-5-5-52/6-6-6-6-6-6-6-6-|
|-0-0--0--0--------------------0-0-2-3-0-0-1-2-3-0-0--0--0-------------------------|
PM- - - - - - - - - - - - - - - - -
Bridge
|------------------------------------------------------------|
|------------------------------------------------------------|
|-9-9-5-5-------9-9-5-5-------9-9-5-5-------9-9-5-5--11-11-7-| x4
|------------------------------------------------------------|
|-7-7-3-3-0-0-0-7-7-3-3-0-0-0-7-7-3-3-0-0-0-7-7-3-3--9--9--5-|
|---------0-0-0---------0-0-0---------0-0-0------------------|
PM - - - - - - - - -
Fill
|----------------|
|----------------|
|-9-9--9--5-5--5-| x1
|----------------|
|-7-7--7--3-3--3-|
|----------------|
Chrous
|---------0-------------0----------0-------------------------------|
|-3-3-3-3-3-3-3-3-3-3-3-3--4-4-4-4-4-4-4-4-4-4-4-------------------|
|-2-2-2-2-2-2-2-2-2-2-2-2--3-3-3-3-3-3-3-3-3-3-3-------------------| x4
|-0-0-0-0-0-0-0-0-0-0-0-0--1-1-1-1-1-1-1-1-1-1-1-------------------|
|-0-0-0-0-0-0-0-0-0-0-0-0--1-1-1-1-1-1-1-1-1-1-1-0-0-2-3-0-0-1-2-3-|
|-0-0-0-0-0-0-0-0-0-0-0-0--1-1-1-1-1-1-1-1-1-1-1-0-0-2-3-0-0-1-2-3-|
PM - - - - - - - - -
Bridge/Fill
|----------------------------------------------------------------|
|----------------------------------------------------------------|
|-------------------------------------------------9-9--9--5-5--5-| x5
|----------------------------------------------------------------|
|-5-0-0-0-12-0-0-0-10-9-7-9-7-5--5-0-0-0-12-0-0-0-7-7--7--3-3--3-|
|-5-0-0-0-12-0-0-0-10-9-7-9-7-5--5-0-0-0-12-0-0-0----------------|
PM - - - - - - - - - - - -
Bridge
|----------------------------------------------|
|-3-3-3-3-------3-3-3-3--------3-3-3-3-3-3-3-3-|
|-2-2-2-2-9-9-9-2-2-2-2-7-10-9-2-2-2-2-2-2-2-2-| x4
|-0-0-0-0-------0-0-0-0--------0-0-0-0-0-0-0-0-|
|-0-0-0-0-7-7-7-0-0-0-0-5-8--7-0-0-0-0-0-0-0-0-|
|-0-0-0-0-------0-0-0-0--------0-0-0-0-0-0-0-0-|
Verse
|----------------------------------------------------------------------------------|
|----------------------------------------------------------------------------------|
|-----------7-7-7-74/7-7-7-7------------------------------7-7-74/8-8-8-8-8-8-8-8-| x6
|-0-0--0--0--------------------0-0-2-3-0-0-1-2-3-0-0--0--0-----------------7-7-7-7-|
|-0-0--0--0-5-5-5-52/5-5-5-5--0-0-2-3-0-0-1-2-3-0-0--0--0-5-5-52/6-6-6-6-6-6-6-6-|
|-0-0--0--0--------------------0-0-2-3-0-0-1-2-3-0-0--0--0-------------------------|
PM- - - - - - - - - - - - - - - - -
Outro
|-----------------------------------|
|-----------------------------------|
|-----------------------------------| x2
|-----------------------------------|
|-2-0-0-0-3-0-0-0-2-0-2-0-0-4-0-0-0-|
|-2-0-0-0-3-0-0-0-2-0-2-0-0-4-0-0-0-|
PM- - - - - - - - - - - - - - - - -
|-----------------------------------|
|-----------------------------------|
|-----------------------------------| x4
|-----------------------------------|
|-2-0-0-0-3-0-0-0-2-0-2-0-0-4-0-0-0-|
|-2-0-0-0-3-0-0-0-2-0-2-0-0-4-0-0-0-|
Don't palm mute the last time
|-----------------------------------|
|-----------------------------------|
|-----------------------------------| x4
|-----------------------------------|
|-2-0-0-0-3-0-0-0-2-0-2-0-0-4-0-0-0-|
|-2-0-0-0-3-0-0-0-2-0-2-0-0-4-0-0-0-|
PM- - - - - - - - - - - - - - - - -




Ваше мнение



Капча