Band: Nothingface
Song: Big Fun at the Gallows
Album: Skeletons
Tuning: CGCFAD

Intro
D|-------------|
A|-------------|
F|-------------|
C|-------------|
G|-----6-6-----|
C|-555-----6-6-|
PM _/

Verse
D|---------------------------------------|
A|---------------------------------------|
F|---------------------------------------|
C|---------------------------------------|
G|-------------------------------6-6-----|
C|-2h3-3-3-3-2-2-2-2-2h3-3-3-555-----6-6-|
PM _/

Riff 1
D|-----------------|
A|-----------------|
F|-----------------|
C|-----------------|
G|-----------------|
C|-5-6-5-8-6-8-6-9-|
_____PM______/

Pre Chorus
D|---------------------------------|---------------------|
A|---------------------------------|---------------------|
F|---------------------------------|---------------------|
C|-65-5-5-5-5-65-5-5-5-5-3-3-3-3-|-1-1-1-1-------------|
G|-65-5-5-5-5-65-5-5-5-5-3-3-3-3-|-1-1-1-1-------------|
C|-65-5-5-5-5-65-5-5-5-5-3-3-3-3-|-1-1-1-1-2-1-0-6-5-0-|

Chorus
D|------------------------------------------------------|
A|------------------------------------------------------|
F|------------------------------------------------------|
C|-5--5--5-5-5-5--------------1--1--1-1-1-1-------------|
G|-5--5--5-5-5-5--------------1--1--1-1-1-1-------------|
C|-5--5--5-5-5-5-2-1-0-6-5-0--1--1--1-1-1-1-2-1-0-6-5-0-|

Bridge
D|---------------|---------------|---------------|---------------------------|
A|---------------|---------------|---------------|---------------------------|
F|---------------|---------------|---------------|---------------------------|
C|-2-1-0-6-5-5-5-|-2-1-0-5p0-0-0-|-2-1-0-6-5-5-5-|-5-5-5---5-5-5-------------|
G|-2-1-0-6-5-5-5-|-2-1-0-5p0-0-0-|-2-1-0-6-5-5-5-|-5-5-5---5-5-5-----6-6-----|
C|-2-1-0-6-5-5-5-|-2-1-0-5p0-0-0-|-2-1-0-6-5-5-5-|-5-5-5---5-5-5-555-----6-6-|
____PM_____/ _/

Fill
D|----------------------------|
A|-15b--14b--13b--12-12-12-12-|
F|-14b--13b--12b--11-11-11-11-|
C|----------------------------|
G|----------------------------|
C|----------------------------|

Outro
D|-----------------|-----------------|-----------------|
A|-----------------|-----------------|-----------------|
F|-----------------|-----------------|-----Tremelo-----|
C|-----------------|-5-6-5-8-6-8-6-9-|-----------------|
G|-----------------|-5-6-5-8-6-8-6-9-|-----------------|
C|-5-6-5-8-6-8-6-9-|-5-6-5-8-6-8-6-9-|-5-6-5-8-6-8-6-9-|
_____PM______/ _____PM______/




Ваше мнение



Капча