Verse 1
Cmaj7 Cmaj9 Gm7 C9 Fmaj7 Fdim
e|0---0-----------|3-------0-------|0---------------|1---------------|
b|0---3-----------|3-------3--s5---|1---------------|0---------------|
g|0---4-----------|3-------3-------|2---------------|1---------------|
d|2---2-----------|3-------2-------|3---------------|3---------------|
a|3---3-----------|5-------3-------|0---------------|----------------|
e|----------------|3---------------|----------------|----------------|
Em7 A7(b9) Dm7 G13(b9) Em7 A7(b9) Dm7 F/G G13(b9)
e|0-------0-------|1-------0-------|0-------0-------|1-------1---0---|
b|3-------2-------|1-------0-------|3-------2-------|1-------1---0---|
g|0-------3-------|2-------1-------|0-------3-------|2-------2---1---|
d|2-------2-------|0-------3-------|2-------2-------|0-------3---3---|
a|2-------0-------|--------0-------|2-------0-------|--------3---0---|
e|----------------|--------3-------|----------------|--------3---3---|
Verse 2
Cmaj7 Cmaj9 Gm7 C9 Fmaj7 Fdim
e|0---0-----------|3-------0-------|0---------------|1---------------|
b|0---3-----------|3-------3--s5---|1---------------|0---------------|
g|0---4-----------|3-------3-------|2---------------|1---------------|
d|2---2-----------|3-------2-------|3---------------|3---------------|
a|3---3-----------|5-------3-------|0---------------|----------------|
e|----------------|3---------------|----------------|----------------|
Em7 A7(b9) Dm7 G13(b9) B/C C C
e|0-------0-------|1-------0-------|----------------|3---------------|
b|3-------2-------|1-------0-------|4-5-------------|5---------------|
g|0-------3-------|2-------1-------|4-5-------------|5---------------|
d|2-------2-------|0-------3-------|4-5-------------|5---------------|
a|2-------0-------|--------0-------|3-3-------------|3---------------|
e|----------------|--------3-------|----------------|----------------|
Bridge
Fm G+7(#9) Cmaj9 C9
e|1------------1-3|1---------------|0---------------|0---------------|
b|1---------------|0---------------|3---------------|3---*(see below)|
g|1---------------|0---------------|4---------------|3---------------|
d|2---------------|1---------------|2---------------|2---------------|
a|2---------------|1---------------|3---------------|3---------------|
e|1---------------|----------------|----------------|----------------|
Fmaj7 Em7 A7(b9) Dm7 C/E F F#dim F/G G13(b9)
e|0---------------|0-------0-------|1-------1---2---|1---0-----------|
b|1---------------|3-------2-------|1---1---1---1---|1---0-----------|
g|2---------------|0-------3-------|2---0---2---2---|2---1-----------|
d|3---------------|2-------2-------|0---2--(3)-(0)--|3---3-----------|
a|----------------|2-------0-------|---(3)-(3)-(0)--|3---0-----------|
e|----------------|----------------|----0---1---2---|3---3-----------|
Verse 3
Cmaj7 Dm7 D#m7 Em7 Gm7 C9 Fmaj7 Fdim
e|0--------5-6-7--|3-------0-------|0---------------|1---------------|
b|0--------6-7-8--|3-------3-------|1---------------|0---------------|
g|0--------5-6-7--|3-------3-------|2---------------|1---------------|
d|2--------7-8-9--|3-------2-------|3---------------|3---------------|
a|3--------5-6-7--|5-------3-------|0---------------|----------------|
e|----------------|3---------------|----------------|----------------|
Em7 A7 Dm7 G7 Em7 A7(b9)
e|0-------0-------|1-------1-------|0---------------|0---------------|
b|3-------2-------|1-------0-------|3---------------|2---------------|
g|0-------0-------|2-------0-------|0---------------|3---------------|
d|2-------2-------|0-------0-------|2---------------|2---------------|
a|2-------0-------|--------2-------|2---------------|0---------------|
e|----------------|--------3-------|----------------|----------------|
Dm7 C/E F F#dim F/G G13(b9) B/C C B/C C
e|1-------1---2---|1---0-----------|----------------|----------------|
b|1---1---1---1---|1---0-----------|4--5------------|----------------|
g|2---0---2---2---|2---1-----------|4--5------------|8--9------------|
d|0---2--(3)-(0)--|3---3-----------|4--5------------|9--10-----------|
a|---(3)-(3)-(0)--|3---0-----------|3--3------------|9--10-----------|
e|----0---1---2---|3---3-----------|----------------|8--8------------|
B/C C B/C C
e|----------------|8-----7--7------||
b|16-17-----------|--8-8----7------||
g|16-17-----------|---------8------||
d|16-17-----------|---------9------||
a|15-15-----------|---------9------||
e|----------------|---------7------||
* (Fmaj7)
e|-----3-------3---------3-----|
b|3-4-5---3-4-5---3-4-5-3------|
g|-------5-------5---------5--2|
d|-----------------------------|
a|-----------------------------|
e|-----------------------------|




Ваше мнение



Капча