Artist: Norah jones
Title: Shoot the moon

Shoot the moon intro (though only small changed throughout song until solos)

Tabbed By Sirex of siology.net
with great help by a slightly dodgy tab of anonymous origin :-)

+ = Accent note
- = softer

- + + + + +
E-----------------------------------------------------------------------
B---1-----1-----0-----1-----------1-----------1-----------1-------------
G------0-----0-----0-----0--2--0-----0-----0-----0-----0-----0-----0----
D---------------------------------------2-----------3-----------2-------
A-----------------------------------------------------------------------
E-----------------------------------------------------------------------


+ - +
E-----------------------------------------------------------------------
B---1-----------1-----------0-------------------------------------------
G------0-----0-----0-----0-----0----------------------------------------
D---------3-------------------------------------------------------------
A---------------------2-------------------------------------------------
E-----------------------------------------------------------------------




Ваше мнение



Капча