Author/Artist: NonPoint
Title: Years
Album: Statement
Transcribed by: Mike Cook
Email: [email protected]

Tuning: Drop D one full step down to C
C G C F A D

[Verse 00:00 - 00:32] Funny feelin', my gut's intuition...
-|PATTERN-A(Clean-possibly-flanged-guitar)-----------------------------------|
-|---------------------------------------------------------------------------|
-|---------2---------------2---------------2---------------2-----------------|
-|-----0-------0-------0-------0-------0-------0-------0-------0-------------|
-|---0---0---0---0---0---0---0---0---0---0---0---0---0---0---0---0-----------|
-|-0---------------0---------------0---------------0-------------------------|

-|PATTERN-B(Distortion)------------------------------------------------------|
-|---------------------------------------------------------------------------|
-|---------------------------------------------------------------------------|
-|-12-12-0-13-12--0-13-12--0-13-127-7---------------------------------------|
-|-12-12-0-13-12--0-13-12--0-13-127-7---------------------------------------|
-|-12-12-0-13-12--0-13-12--0-13-127-7---------------------------------------|

Play Order: A, B, B, A, B, B, A, B, B

==

[Chorus 00:33 - 01:03] There's no easier way out of this place...
-|---------------------------------------------------------------------------|
-|---------------------------------------------------------------------------|
-|---------------------------------------------------------------------------|
-|-8--8-8-10-12-5-5-5-5-8----0--0-13-12--0-13-12--0-13-12--0-----------------|
-|-8--8-8-------5-5-5-5---7!-0--0-13-12--0-13-12--0-13-12--0-----------------|
-|-8--8-8-------5-5-5-5------0--0-13-12--0-13-12--0-13-12--0-----------------|
Play 3 times !=Pinch Harmonic

Someone you chose to lie to all these years...
-|--------------------------------------------------------|------------------|
-|--------------------------------------------------------|------------------|
-|--------------------------------------------------------|------------------|
-|-8--8-8-10-12-5-5-5-5-8----0--0-13-12--0-13-12--0-13-12-|-0-13-12----------|
-|-8--8-8-------5-5-5-5---7!-0--0-13-12--0-13-12--0-13-12-|-0-13-12----------|
-|-8--8-8-------5-5-5-5------0--0-13-12--0-13-12--0-13-12-|-0-13-12----------|
Play Once Play 12 times

==

[Verse 01:03 - 01:36] There is no other title that I can find for us...
-|PATTERN-A(Clean-possibly-flanged-guitar)-----------------------------------|
-|---------------------------------------------------------------------------|
-|---------2---------------2---------------2---------------2-----------------|
-|-----0-------0-------0-------0-------0-------0-------0-------0-------------|
-|---0---0---0---0---0---0---0---0---0---0---0---0---0---0---0---0-----------|
-|-0---------------0---------------0---------------0-------------------------|

-|PATTERN-B(Distortion)------------------------------------------------------|
-|---------------------------------------------------------------------------|
-|---------------------------------------------------------------------------|
-|-12-12-0-13-12--0-13-12--0-13-127-7---------------------------------------|
-|-12-12-0-13-12--0-13-12--0-13-127-7---------------------------------------|
-|-12-12-0-13-12--0-13-12--0-13-127-7---------------------------------------|

Play Order: A, B, B, A, B, B, A, B, B

==

[Chorus 01:36 - 02:06] There's no easier way out of this place...
-|---------------------------------------------------------------------------|
-|---------------------------------------------------------------------------|
-|---------------------------------------------------------------------------|
-|-8--8-8-10-12-5-5-5-5-8----0--0-13-12--0-13-12--0-13-12--0-----------------|
-|-8--8-8-------5-5-5-5---7!-0--0-13-12--0-13-12--0-13-12--0-----------------|
-|-8--8-8-------5-5-5-5------0--0-13-12--0-13-12--0-13-12--0-----------------|
Play 3 times

Someone you chose to lie to all these years...
-|--------------------------------------------------------|------------------|
-|--------------------------------------------------------|------------------|
-|--------------------------------------------------------|------------------|
-|-8--8-8-10-12-5-5-5-5-8----0--0-13-12--0-13-12--0-13-12-|-0-13-12----------|
-|-8--8-8-------5-5-5-5---7!-0--0-13-12--0-13-12--0-13-12-|-0-13-12----------|
-|-8--8-8-------5-5-5-5------0--0-13-12--0-13-12--0-13-12-|-0-13-12----------|
Play Once Play 12 times

==

[Bridge 02:06 - 02:42] All these years...
-|---------|---------------|-------------------------------------------------|
-|---------|---------------|-------------------------------------------------|
-|---------|-7-8-7--8-10-8-|-7-8-7-------------------------------------------|
-|-0-12-13-|-7-7-7--8-10-8-|-7-7-7-------------------------------------------|
-|-0-12-13-|-5-5-5--6-6--6-|-5-5-5-------------------------------------------|
-|-0-12-13-|---------------|-------------------------------------------------|
Once Play 22 Times Play 4 Times

==

[Chorus 02:42 - 3:20] There's no easier way out of this place...
-|---------------------------------------------------------------------------|
-|---------------------------------------------------------------------------|
-|---------------------------------------------------------------------------|
-|-8--8-8-10-12-5-5-5-5-8----0--0-13-12--0-13-12--0-13-12--0-----------------|
-|-8--8-8-------5-5-5-5---7!-0--0-13-12--0-13-12--0-13-12--0-----------------|
-|-8--8-8-------5-5-5-5------0--0-13-12--0-13-12--0-13-12--0-----------------|
Play 3 times

Someone you chose to lie to all these years...
-|--------------------------------------------------------|------------------|
-|--------------------------------------------------------|------------------|
-|--------------------------------------------------------|------------------|
-|-8--8-8-10-12-5-5-5-5-8----0--0-13-12--0-13-12--0-13-12-|-0-13-12----------|
-|-8--8-8-------5-5-5-5---7!-0--0-13-12--0-13-12--0-13-12-|-0-13-12----------|
-|-8--8-8-------5-5-5-5------0--0-13-12--0-13-12--0-13-12-|-0-13-12----------|
Play Once Play 11 times

END




Ваше мнение



Капча