Nonpoint - Tribute - Statement
Tuning - CGCFAD
This is an awesome song. 3 covers rolled into one. Its slick rick's Childen's Story, Busta Rhymes'
and Wu-Tang Clan's METHOD Man. If you haven't heard this song I recommend checking out the cd. I t is well
the money.
Children's Story*
|--------------------------------------------------------------------|
|--------------------------------------------------------------------|
|-7--------7--7--------7-------7--7----------------------------------|Gtr
|--------------------------------------------------------------------| I
|-5--------5--5--------5-------5--5----------------------------------|
|----0--0--------0--0-------0----------------------------------------|
*with wah and variations throughout, but these are the only notes you play
woo hah
6x
|------------------------------------|
|------------------------------------|
|------------------------------------|Gtr
|------------------------------------| I
|-------5----------------------------|
|-0-/7-----6----------0-/7-/7--0-----|
|--------------------------------------------------------------------|
|--------------------------------------------------------------------|
|--------------------------------------------------------------------|Gtr
|--------------------------------------------------------------------| I
|-----------------------5------------------------------5-------------|
|-0-/7-/7--0------0-/7-----6------0-/7-/7--0------0-------6----------|
|--------------------------------------------------------------------|
|--------------------------------------------------------------------|
|--------------------------------------------------------------------|Gtr
|--------------------------------------------------------------------| I
|----------5------------5------------------------------5-------------|
|-0-/7-/7---------0-/7-----6------0-/7-/7--0------0-/7----6----------|
|--------------------------------------------------------------------|
|--------------------------------------------------------------------|
|--------------------------------------------------------------------|Gtr
|--------------------------------------------------------------------| I
|-----------------------5------------------------------5-------------|
|-0-/7-/7--0------0-/7-----6------0-/7-/7--0------0-------6----------|
|--------------------------------------------------------------------|
|-----------------------------------------------------3------------|
|-----------------------------------------------------2------------|Gtr
|-----------------------------------------------------0------------| I
|-----------------------5--------------------------------------------|
|-0-/7-/7--0------0-/7-----6------0-/7-/7--0-------------------------|
method man
|--------------------------------------------------------------------|
|--------------------------------------------------------------------|
|--------------------------------------------------------------------|Gtr
|-0--0---0--0--0--0--------------------------------------------------| I
|-0--0---0--0--0--0--------------------------------------------------|
|-0--0---0--0--0--0--------------------------------------------------|
3x
verse
*note: a lot of the bends are artificial harmonics
|--------------------------------------------------------------------|
|--------------------------------------------------------------------|
|--------------------------------------------------------------------|Gtr
|-0--0---0--0---0--0--0-------------0--0---0--0---0--0--0------------| I
|-0--0---0--0---0--0--0--5bh--------0--0---0--0---0--0--0--5bh-------|
|-0--0---0--0---0--0--0-------------0--0---0--0---0--0--0------------|
|--------------------------------------------------------------------|
|--------------------------------------------------------------------|
|--------------------------------------------------------------------|Gtr
|-0--0---0--0---0--0--0-------------0--0---0--0---0--0--0------------| I
|-0--0---0--0---0--0--0--5bh--------0--0---0--0---0--0--0--5bh--3~---|
|-0--0---0--0---0--0--0-------------0--0---0--0---0--0--0------------|
end verse
repeat verse
verse 2 p p p
|--------------------------------------------------------------------|
|--------------------------------------------------------------------|
|--------------------------------------------------------------------|Gtr
|-0----------------------------------5-4--5-4--5-4--5--6--7-------| I
|-0--5--4--5--4--5----4--5--5--------5-4--5-4--5-4--5--6--7-------|
|-0----------------------------------5-4--5-4--5-4--5--6--7-------|
|--------------------------------------------------------------------|
|--------------------------------------------------------------------|
|--7p5-----8--7--5--7--7p5-------------------------------------------|Gtr
|---------10---------------------------------------------------------| I
|--------------------------------------------------------------------|
|--------------------------------------------------------------------|
|--------------------------------------------------------------------|
|-8hb--6-------------------------------------------------------------|
|---------5--7----7p5------------------------------------------------|Gtr
|--------------------------------------------------------------------| I
|--------------------------------------------------------------------|
|--------------------------------------------------------------------|
|--------------------------------------------------------------------|
|--------------------------------------------------------------------|
|-7-7--7--7--7--7--7-------------------------------------------------|Gtr
|--------------------0-----------------------------------------------| I
|--------------------------------------------------------------------|
|--------------------------------------------------------------------|
play verse
end riff
|--------------------------------------------------------------------|
|--------------------------------------------------------------------|
|--------------------------------------------------------------------|Gtr
|-0--0---0--0---0--0--0-------------0--0---0--0---0--0--0--3hb-------| I
|-0--0---0--0---0--0--0--5hb--------0--0---0--0---0--0--0------------|
|-0--0---0--0---0--0--0-------------0--0---0--0---0--0--0------------|
|--------------------------------------------------------------------|
|--------------------------------------------------------------------|
|--------------------------------------------------------------------|Gtr
|-0--0---0--0---0--0--0-------------0--0---0--0---0--0--0--5hb-rb-3--| I
|-0--0---0--0---0--0--0--3hb--------0--0---0--0---0--0--0------------|
|-0--0---0--0---0--0--0-------------0--0---0--0---0--0--0------------|
play verse
|--------------------------------------------------------------------|
|--------------------------------------------------------------------|
|--------------------------------------------------------------------|Gtr
|-0--0---0--0---0--0--0-------------0--0---0--0---0--0--0--3hb-------| I
|-0--0---0--0---0--0--0--5hb--------0--0---0--0---0--0--0------------|
|-0--0---0--0---0--0--0-------------0--0---0--0---0--0--0------------|
|--------------------------------------------------------------------|
|--------------------------------------------------------------------|
|--------------------------------------------------------------------|Gtr
|-0--0---0--0---0--0--0-------------0--0---0--0---0--0--0------------| I
|-0--0---0--0---0--0--0--3hb--------0--0---0--0---0--0--0------------|
|-0--0---0--0---0--0--0-------------0--0---0--0---0--0--0------------|




Ваше мнение



Капча