Author/Artist: Nonpoint
Title: Orgullo
Album: statement
Transcribed by: Scooter
Email: [email protected]

tuning
C G C F A D

-101010/13-13-13/101010/15-15-15-15/101010/13-13-13/101010/17-17-17-17----------
-x-x-x-/x--x--x-/x-x-x-/x--x--x--x/x-x-x-/x--x--x-/x-x-x-/x--x--x--x------------
-7-7-7-/10-10-10/7-7-7-/12-12-12-12/7-7-7-/10-10-10/7-7-7-/14-14-14-14----------
------------------------------------------------------------------------------
------------------------------------------------------------------------------
------------------------------------------------------------------------------
play fast with lots of distortion

------------------------------------------------------------------------------
------------------------------------------------------------------------------
------------------------------------------------------------------------------
-000-333-000-555--000-333-000-66-6--------------------------------------------
-000-333-000-555--000-333-000-66-6--------------------------------------------
-000-333-000-555--000-333-000-66-6--------------------------------------------


-----------------------------------|------------------------------------------
-----------------------------------|------------------------------------------
-----------------------------------|------------------------------------------
-00-33-00-333/555--00-33-00-555/666|-0-3-0-555--0-3-0-66-6-6-6----------------
-00-33-00-333/555--00-33-00-555/666|-0-3-0-555--0-3-0-66-6-6-6----------------
-00-33-00-333/555--00-33-00-555/666|-0-3-0-555--0-3-0-66-6-6-6----------------
pm pm pm pm PM....

-----------------------|----|-------------------------------------------------
-----------------------|----|-------------------------------------------------
-----------------------|----|-------------------------------------------------
-----------------------|0000|-0000---000---0000---000-------------------------
------5----5-----5----6|0000|-0000-5-000-5-0000-5-000-6-----------------------
-0000--000--0000--000--|0000|-0000---000---0000---000-------------------------
do this twice pm..

-----------------|-----|------------------------------------------------------
-----------------|-----|------------------------------------------------------
-----------------|-----|------------------------------------------------------
-0000-3-0-00-3-0-|-0000|--0-3-0---0-3-0--0-3-0--------------------------------
-0000-3-0-00-3-0-|-0000|--0-3-0---0-3-0--0-3-0--------------------------------
-0000-3-0-00-3-0-|-0000|--0-3-0---0-3-0--0-3-0--------------------------------
pm pm pm..

------------------------------------------------------------------------------
------------------------------------------------------------------------------
------------------------------------------------------------------------------
-000-5-0--320-00-5-0-320------------------------------------------------------
-000-5-0--320-00-5-0-320------------------------------------------------------
-000-5-0--320-00-5-0-320------------------------------------------------------
listen to get this part

------------------------------------------------------------------------------
------------------------------------------------------------------------------
------------------------------------------------------------------------------
-5-00-3p0-000-----------------------------------------------------------------
-5-00-3p0-000-----------------------------------------------------------------
-5-00-3p0-000-----------------------------------------------------------------
pm..

Ok hers the tab to Nonpoint’s ORGULLO.. This song is one of my
favorites mostly because its sung entirely in Spanish which is bad ass!
Ok the intro is kinna hard I couldn’t tab the real chord cuz I
was to lazy to find it so I just did a octave chord shape which
sounds close but not correct.
And t he rest of the song is not labeled so your going to have
to listen to find each part. I hope this transcription can get
you a good start in learning the song.


Ваше мнение



Капча