Author/Artist: NonPoint
Title: Mindtrip
Album: Statement
Transcribed by: Mike Cook
Email: [email protected]
======================
Last Updated: 5/1/2002
======================
::Modified Verses, fixed a few harmonics and slides.
Tuning: Drop D one full step down to C
C G C F A D
-|---------------------------------------------------------------------------|
-|---------------------------------------------------------------------------|
-|--------------------55-55----------------------55-33-----------------------|
-|-777--555--777--333-55-55--777--555--777--333--55-33-----------------------|
-|-777--555--777--333-33-33--777--555--777--333--33-11-----------------------|
-|-777--555--777--333--------777--555--777--333------------------------------|
(play 4 times)
-|---------------------------------------------------------------------------|
-|---------------------------------------------------------------------------|
-|------------------5--------------------------------------------------------|
-|-77--55--77--333--5--77--55--77--4-33-22-----------------------------------|
-|-77--55--77--333--3--77--55--77--4-33-22-----------------------------------|
-|-77--55--77--333-----77--55--77--4-33-22-----------------------------------|
PM............| PM................| (play 4 times,only PM the first 3)
-|---------------------------------------------------------------------------|
-|---------------------------------------------------------------------------|
-|---------------------------------------------------------------------------|
-|-00-0h1-00-0h1---00-0h1-00-0h1---2.7*--------------------------------------|
-|-00-0h1-00-0h1---00-0h1-00-0h1----2.7*-------------------------------------|
-|-00-0h1-00-0h1---00-0h1-00-0h1-----2.3*------------------------------------|
PM PM PM PM *=Harmonic (play 4 times)
-|----------------------------------------------------|--------|-------------|
-|-----------------11-10-------------------------11-10|--------|-------------|
-|----------------------------------------------------|-----5b-|---15---14---|
-|------12-13-10-12------12/5-5*------12-13-10-12-----|-12----|-0-15-0-14---|
-|-12-13-------------------------12-13----------------|--------|-0-13-0-12---|
-|----------------------------------------------------|--------|-0----0------|
(Play 2 Times) [1st End] [2nd Ending]
-|---------------------------------------------------------------------------|
-|---------------------------------------------------------------------------|
-|---------------------------------------------------------------------------|
-|-00----8p7-0-00-0-0-000----8p7-0-00-0-0-000----8p7-0-00-0-0-000----8p7-----|
-|-00-8p7----0-00-0-0-000-8p7----0-00-0-0-000-8p7----0-00-0-0-000-8p7--------|
-|-00--------0-00-0-0-000--------0-00-0-0-000--------0-00-0-0-000------------|
PM PM...| PM. PM...| PM. PM...| PM.
-|----------------------------------|----------------------------------------|
-|----------------------------------|----------------------------------------|
-|----------------------------------|----------------------------------------|
-|-00-----00-5p3-00-8p7-00----------|--00-----00-5p3-00-8p7-00-10p8----------|
-|-00-3h5-00-----00-----00-10p8-----|--00-3h5-00-----00-----00---------------|
-|-00-----00-----00-----00----------|--00-----00-----00-----00---------------|
PM PM PM PM (4 Times*) PM PM PM PM
(*Play this 4th time)
-|---------------------------------------------------------------------------|
-|---------------------------------------------------------------------------|
-|--------------------------------------------------2.3*---------------------|
-|-000h1-000h1-2.3*-000h1-000h1-2.7*---000h1-000h1--2.3*-000h1-000h1-2.7*----|
-|-000h1-000h1------000h1-000h1--2.7*--000h1-000h1-2.3*--000h1-000h1--2.7*---|
-|-000h1-000h1------000h1-000h1---2.3*-000h1-000h1-------000h1-000h1---2.3*--|
-|-----------|-----------|-----------------------|---------------------------|
-|-----------|-----------|-----------------------|---------------------------|
-|---15---14-|-----------|-----------------------|---------------------------|
-|-0-15-0-14-|-00----8p7-|-0-00-0-0-000----8p7---|-00--00--00--00------------|
-|-0-13-0-12-|-00-8p7----|-0-00-0-0-000-8p7------|-00--00--00--00------------|
-|-0----0----|-00--------|-0-00-0-0-000----------|-00--00--00--00------------|
PM PM...| PM. (3 times) PM...........| (2 times)
-|---------------------------------------------------------------------------|
-|---------------------------------------------------------------------------|
-|---------------------------------------------------------------------------|
-|-----------5p3----8p7----10p8----12p10----13p12----15p14----17h18----------|
-|----3h5--------------------------------------------------------------------|
-|-00-----00-----00-----00------00-------00-------00-------00----------------|
-|--------10/11--------1110--|----------------------------------------------|
-|--------10/11--------1110--|-10-11-10-11-10-------------------------------|
-|----7/8----------7/8--------|----------------12-10-------------------------|
-|----7/8----------7/8--------|----------------------13-12-------------------|
-|----------------------------|----------------------------------------------|
-|-00-----------00------------|----------------------------------------------|
PM PM (8 times) (w/ wah wah) (8 times)
-|---10/11---1110----------|------------------------------------------------|
-|---10/11---1110----------|------------------------------------------------|
-|--------------------------|------------------------------------------------|
-|--------------------------|------------------------------------------------|
-|--------------------------|-00-0h1-00-0h1----------------------------------|
-|-0-------0----------------|-00-0h1-00-0h1----------------------------------|
PM PM (8 times) PM PM (8 Times no PM last 2 times)
-|---------------------------------------------------------------------------|
-|---------------------------------------------------------------------------|
-|--------------------------------------------------2.3*-------------2.7*----|
-|-000h1-000h1-2.3*-000h1-000h1-2.7*---000h1-000h1--2.3*-000h1-000h1-2.7*----|
-|-000h1-000h1------000h1-000h1--2.7*--000h1-000h1-2.3*--000h1-000h1--2.7*---|
-|-000h1-000h1------000h1-000h1---2.3*-000h1-000h1-------000h1-000h1---2.3*--|
-|-------------3.1*----------------------------------------------------------|
-|-------------3.1*----------------------------------------------------------|
-|-------------3.1*----------------------------------------------------------|
-|-000h1-000h1-3.1*--000h1-000h1-2.3*----000h1-000h1--3*--000h1-000h1--------|
-|-000h1-000h1-3.1*--000h1-000h1--2.3*---000h1-000h1------000h1-000h1-2.7*---|
-|-000h1-000h1-3.1*--000h1-000h1---2.3*--000h1-000h1------000h1-000h1--2.3*--|
-|---------------------------------------------------------------------------|
-|--17-16---------------15---------------------------------------------------|
-|---------14------14---14---------------------------------------------------|
-|-----------12--12-----12---------------------------------------------------|
-|-------------13-------0----------------------------------------------------|
-|----------------------0----------------------------------------------------|
w/ Chorous Let it ring bay-B yEa
^___can't figure out end, I don't think this is right, my ears suXor :P




Ваше мнение



Капча