Author/Artist: NonPoint
Title: Mind Trip
Album: ?
Transcribed by: Scooter
Email: [email protected]

tuning
1 whole step down the drop D sting to C
C G C F A D

------------------------------------------------------------------------------
------------------------------------------------------------------------------
-------------5-5------------5-3-----------------------------------------------
-77--55-77-3-5-5-77-55-77-3-5-3-----------------------------------------------
-77--55-77-3-3-3-77-55-77-3-3-1-----------------------------------------------
-77--55-77-3-----77-55-77-3---------------------------------------------------
verces:

-|----------------------------------------------------------------------------
-|----------------------------------------------------------------------------
-|--------------5-------------------------------------------------------------
-|7-7-55-77-333-5-77-55-77-3333-----------------------------------------------
-|7-7-55-77-333-3-77-55-77-3333-----------------------------------------------
-|7-7-55-77-333---77-55-77-3333-----------------------------------------------
P .M........................

---------------------------------|----------------------11|-------------------
-----------------------*---------|--------------10-9------|-------------------
-----------------------3*--------|---------9-10-----------|-9h10p9------------
-00-0-00-0--00-0-00-0---3*-------|-----9-10---------------|-------------------
-00-0-00-0--00-0-00-0----3-------|-9-10-------------------|-------------------
-00-0-00-0--00-0-00-0------------|-------------------10/0-|-------------------
PM PM PM PM *=Harmonic l

--6-5-|-----------------|--------------------------|--------------------------
--x-x-|-----------------|--------------------------|--------------------------
--3-2-|-----------------|--------------------------|--------------------------
------|0-00----8p700-00-|----------6p5---8p7-------|--------------------------
------|0-00-8h9---00-00-|----5h6---------------10p9|--------------------------
------|0-00-------00-00-|-00----00----00----00-----|--------------------------
pm pm...

---------------------*--|---|-------------------------------------------------
----------*----------3*-|--*|-------------------------------------------------
----------3-----------3*|-*3|-------------------------------------------------
-0000-000---0000-000---3|-3-|-------------------------------------------------
-0000-000---0000-000----|---|-------------------------------------------------
-0000-000---0000-000----|---|-------------------------------------------------
Fill

------------|-----------------------------------------------------------------
------------|------------------------------------------10---------------------
------------|--------------------------------8p7--10p9------------------------
-00-00-00-00|-0--------6p5--8p7--10p9--12p11----------------------------------
-00-00-00-00|-0---5h6---------------------------------------------------------
-00-00-00-00|-0-0----0----0----0-----0------0---0-----------------------------
x2

-----------------------------|---5/6--6/5|--------------|---------------------
---10/11/10/11---10/11/10/11-|---x-x--x-x|--------------|---------------------
-----------------------------|---2/3--3/2|--------------|---------------------
-00-7/8/-7-/7-00-7/-8-/7-/8--|-0----0----|-00-1/2-00-2/1|---------------------
-00-----------00-------------|-0----0----|-00-1/2-00-2/1|---------------------
-00-----------00-------------|-0----0----|-00-1/2-00-2/1|---------------------
Listen for it,PM PM back to begining

This song jumps from different riffs and stuff back and forth
I didn?t label the riffs cuz I am very lazy right now so you will have to figure
it out so here it is, a very awesome song form a sick ass band.


Ваше мнение



Капча