Artist: Nonpoint
Title: Hide and Seek
This is an awesome song when played correctly. I'm almost positive it's right.
Drop-D Tuning
Intro & Chorus
e|----------------------------------------------------------|
b|----------------------------------------------------------|
g|------------8-8-8-8-10-10-10------------------------------|
d|8/10-12-12--8-8-8-8-8--8--8-10-10-10-10--8-8-8-8-10-10-10-|
a|8/10-10-10--8-8-8-8-8--8--8-10-10-13-13--8-8-8-8-8--8--8--|
d|8/10-10-10--8-8-8-8-8--8--8-10-10-10-10--8-8-8-8-8--8--8--|
e|------------------------------------------------------------------------|
b|------------------------------------------------------------------------|
g|------------------------------------------------------------------------|
d|6-6-6-6-8-8-8-8-10-10-10-10-8-8-8-8-6-6-6-6-8-8-8-8-6--6--6--6--6-6-6-6-|
a|6-6-6-6-6-6-6-6-6--6--6--6--6-6-6-6-6-6-6-6-6-6-6-6-10-10-10-10-6-6-6-6-|
d|6-6-6-6-6-6-6-6-6--6--6--6--6-6-6-6-6-6-6-6-6-6-6-6-6--6--6--6--6-6-6-6-|
It's the same speed strum, I just have to fit the 10's in there.
e|----------------------------------------------------------|
b|----------------------------------------------------------|
g|------------8-8-8-8-10-10-10------------------------------|
d|8/10-13-13--8-8-8-8-8--8--8-10-10-10-10--8-8-8-8-10-10-10-|
a|8/10-10-10--8-8-8-8-8--8--8-10-10-13-13--8-8-8-8-8--8--8--|
d|8/10-10-10--8-8-8-8-8--8--8-10-10-10-10--8-8-8-8-8--8--8--|
e|------------------------------------------------------------------------|
b|------------------------------------------------------------------------|
g|------------------------------------------------------------------------|
d|6-6-6-6-8-8-8-8-10-10-10-10-8-8-8-8-6-6-6-6-8-8-8-8-6--6--6--6--6-6-6-6-|
a|6-6-6-6-6-6-6-6-6--6--6--6--6-6-6-6-6-6-6-6-6-6-6-6-10-10-10-10-6-6-6-6-|
d|6-6-6-6-6-6-6-6-6--6--6--6--6-6-6-6-6-6-6-6-6-6-6-6-6--6--6--6--6-6-6-6-|
Verse
e|---------------------------------------------------------|
b|---------------------------------------------------------|
g|-------------------8-----10------------------------------|
d|------10h12-8~-------------------10h12-8~-----8-----8h10-|
a|10-10----------8-8---8-8---10-10----------8-8---8-8------|
d|10-10----------8-8---8-8---10-10----------8-8---8-8------|
* * * * * * * * * * * *
e|-------------------------------------------------|
b|-------------------------------------------------|
g|-------------------------------------------------|
d|----8h10-6~-----6h8-10~-----8h10-6~-----6h8-10~--|
a|6-6---------6-6---------6-6---------6-6----------|
d|6-6---------6-6---------6-6---------6-6----------|
* * * * * * * *
e|---------------------------------------------------------|
b|---------------------------------------------------------|
g|-------------------8-----10------------------------------|
d|------10h12-8~-------------------10h12-8~-----8-----8h10-|
a|10-10----------8-8---8-8---19-10----------8-8---8-8------|
d|10-10----------8-8---8-8---10-10----------8-8---8-8------|
* * * * * * * * * * * *
e|------------------------------------------------------------------------|
b|------------------------------------------------------------------------|
g|------------------------------------------------------------------------|
d|6-6-6-6-8-8-8-8-10-10-10-10-8-8-8-8-6-6-6-6-8-8-8-8-6--6--6--6--6-6-6-6-|
a|6-6-6-6-6-6-6-6-6--6--6--6--6-6-6-6-6-6-6-6-6-6-6-6-10-10-10-10-6-6-6-6-|
d|6-6-6-6-6-6-6-6-6--6--6--6--6-6-6-6-6-6-6-6-6-6-6-6-6--6--6--6--6-6-6-6-|
Pre-Chorus
e|--------------------------------|
b|--------------------------------|
g|5-5-5-5-5-5-5-5-3-3-3-3---------| X4
d|5-5-5-5-5-5-5-5-3-3-3-3-3-3-3-3-|
a|3-3-3-3-3-3-3-3-1-1-1-1-3-3-3-3-|
d|------------------------3-3-3-3-|
Bridge
e|-----------------------------------------------|
b|-----------------------------------------------|
g|-----------------------------------------------|
d|---------12----12----12----12---12---12---12---|
a|10-10-10----10----10----10----8----8----8----8-|
d|10-10------------------------------------------|
* *
e|------------------------------------------------------------------------|
b|------------------------------------------------------------------------|
g|------------------------------------------------------------------------|
d|6-6-6-6-6-6-6-6-8-8-8-8-8-8-8-8-10-10-10-10-10-10-10-10-8-8-8-8-8-8-8-8-|
a|6-6-6-6-6-6-6-6-6-6-6-6-6-6-6-6-6--6--6--6--6--6--6--6--6-6-6-6-6-6-6-6-|
d|6-6-6-6-6-6-6-6-6-6-6-6-6-6-6-6-6--6--6--6--6--6--6--6--6-6-6-6-6-6-6-6-|
e|-----------------------------------------------|
b|-----------------------------------------------|
g|-----------------------------------------------|
d|---------12----12----12----12---12---12---12---|
a|10-10-10----10----10----10----8----8----8----8-|
d|10-10------------------------------------------|
* *
e|------------------------------------------------------------------------|
b|------------------------------------------------------------------------|
g|------------------------------------------------------------------------|
d|6-6-6-6-6-6-6-6-8-8-8-8-8-8-8-8-10-10-10-10-10-10-10-10-8-8-8-8-8-8-8-8-|
a|6-6-6-6-6-6-6-6-6-6-6-6-6-6-6-6-6--6--6--6--6--6--6--6--6-6-6-6-6-6-6-6-|
d|6-6-6-6-6-6-6-6-6-6-6-6-6-6-6-6-6--6--6--6--6--6--6--6--6-6-6-6-6-6-6-6-|
e|------------------------------------------------------------------------|
b|------------------------------------------------------------------------|
g|------------------------------------------------------------------------|
d|6-6-6-6-8-8-8-8-10-10-10-10-8-8-8-8-6-6-6-6-8-8-8-8-6--6--6--6--6-6-6-6-|
a|6-6-6-6-6-6-6-6-6--6--6--6--6-6-6-6-6-6-6-6-6-6-6-6-10-10-10-10-6-6-6-6-|
d|6-6-6-6-6-6-6-6-6--6--6--6--6-6-6-6-6-6-6-6-6-6-6-6-6--6--6--6--6-6-6-6-|
Ending
e|-----------------------------------------------------------------------------|
b|-----------------------------------------------------------------------------|
g|-----------------------------------------------------------------------------|
d|6-6-6-6-8-8-8-8-10-10-10-10-8-8-8-8-6-6-6-6-8-8-8-8-6--6--6--6--6--6--6--6--|
a|6-6-6-6-6-6-6-6-6--6--6--6--6-6-6-6-6-6-6-6-6-6-6-6-10-10-10-10-10-10-10-10-|
d|6-6-6-6-6-6-6-6-6--6--6--6--6-6-6-6-6-6-6-6-6-6-6-6-6--6--6--6--6--6--6--6--|
Song Structure
Intro X1
Verse X1
Pre-Chorus X1
Chorus X1
Verse X1
Pre-Chorus X1
Chorus X1
Bridge X1
Chorus X1
Ending X1




Ваше мнение



Капча