Endure
---------|-------|---------------------------------|---------------|----------
---------|-------|---------------------------------|---------------|----------
-7777777-|-------|------------------------------7--|-7777---5555---|----------
---------|-5-3-0-|-----0-------0-------0-------0---|-7777-5-5555-5-|-5-3-0----
---------|-5-3-0-|---0---0---0---0---0---0---0---0-|-5555-5-3333-5-|-5-3-0----
-0-3-5-7-|-5-3-0-|-0-------3-------5-------7-------|------5------5-|-5-3-0----
verse chorus endure!
------------------------------------|---------------|-------|-----|---------|-
------------------------------------|---------------|-------|-----|---------|-
------------------------------7-----|-7777---5555---|-------|-----|---------|-
-----0-------0-------0-------0--0---|-7777-5-5555-5-|-5-3-0-|-----|-5-3-0---|-
---0---0---0---0---0---0---0------0-|-5555-5-3333-5-|-5-3-0-|-----|-5-3-0---|-
-0-------3-------5-------7----------|------5------5-|-5-3-0-|-----|-5-3-0---|-
verse chorus endure! pause
----------------------------|-------|------------------|----------------------
----------------------------|-------|------------------|----------------------
---------99999h109h10-------|-------|------------------|----------------------
-77777777777----------5-3-0-|-5-3-0-|-0----5----3----0-|----------------------
-77777777777----------5-3-0-|-5-3-0-|-0----5----3----0-|----------------------
-77777777777----------5-3-0-|-5-3-0-|-0----5----3----0-|----------------------
endure!




Ваше мнение



Капча