-----------------------------------------------------------------------------
Nonpoint - Development
-----------------------------------------------------------------------------

Tabbed by:Chris McBroom
Email:[email protected]

Tuning: CGCFAD(low to high)

Main Riff
|---------------------------------------------------------------------------|
|---------------------------------------------------------------------------|
|---------------------------------------------------------------------------|
|---------------------------------------------------------------------------|
|--0001000100010001033344455------------------------------------------------|
|--0001000100010001033344455------------------------------------------------|

Fill before verse
|---------------------------------------------------------------------------|
|---------------------------------------------------------------------------|
|---------------------------------------------------------------------------|
|---------------------------------------------------------------------------|
|--3334445--3334445--3334445--0---------------------------------------------|
|--3334445--3334445--3334445--0---------------------------------------------|

Verse
|---------------------------------------------------------------------------|
|---------------------------------------------------------------------------|
|----3--5--3--2-------------------------------------------------------------|
|----------------3----------------------------------------------------------|
|---------------------------------------------------------------------------|
|---------------------------------------------------------------------------|

Breakdown
|---------------------------------------------------------------------------|
|---------------------------------------------------------------------------|
|---------------------------------------------------------------------------|
|---------------------------------------------------------------------------|
|--3-0-1--3-0-5-------------------------------------------------------------|
|--3-0-1--3-0-5-------------------------------------------------------------|

The breakdown might not be right, but it's close
Thanks,
Chris Mc




Ваше мнение



Капча