----------------------------------------------------------------------------
COMME ELLE VIENT - Noir Desir
----------------------------------------------------------------------------
Tabbed by: Jesse Benedick
Email: [email protected]
Tuning: Standard
e|--------------------|--------------------|-------------------------------|
B|-------3---------5--|--7----3---------5--|--7----9----3------------------|
G|--9----5----4----7--|--9----5----4----7--|--9----11---5----4----6--------|
D|--x----5----5----7--|--9----5----5----7--|--9----11---5----5----7--------|
A|--7----3----5----5--|--7----3----5----5--|--7----9----3----5----7--------|
E|------------3-------|------------3-------|-----------------3----5--------|
Intro Chords Breakdown Chords
| / slide up
| slide down
| h hammer-on
| p pull-off
| ~ vibrato
| + harmonic
| x Mute note
===============================================================================




Ваше мнение



Капча