----------------------------------------------------------------------------
AUX SOMBRES HEROS D'AMER - Noir Desir
----------------------------------------------------------------------------
Tabbed by: Jesse Benedick
Email: [email protected]
Tuning: Standard
e|--0----0----0--0--0--|--0--0--0---------1-------|-0-----0-----0-----1----|
B|--1----1----1--0--1--|--1--1--1---------1-------|---1-----1-----1-----1--|
G|--2----0----0--4--2--|--2--0--0---------2-------|------------------------|
D|--2----2----2--5--3--|--2--2--0---------3-------|------------------------|
A|-------3----3--------|-----3--2-----------------|------------------------|
E|---------------------|--------3-----------------|------------------------|
Opening Chords Always lost in the sea.... (guitar 2)
e|---------------------|---0-----0-----3-----5-----------------------------|
B|---------------------|-----1-----1-----1-----1---------------------------|
G|---------------------|---------------------------------------------------|
D|-----4/7~------------|---------------------------------------------------|
A|---------------------|---------------------------------------------------|
E|---------------------|---------------------------------------------------|
(guitar 2 at beginning) (guitar 2 over second chorus)
e|--0-------------------|--------------------------------------------------|
B|---1------------------|--------------------------------------------------|
G|----2-----------------|--------------------------------------------------|
D|-----2----------------|----7b9r7~----------------2/7~--------------------|
A|------0---------------|--------------------------------------------------|
E|-------0--------------|--------------------------------------------------|
Strum chord on breakdown (guitar 2 breakdown)
| / slide up
| slide down
| h hammer-on
| p pull-off
| ~ vibrato
| + harmonic
| x Mute note
============================================================================




Ваше мнение



Капча