Am Dm
Оправдываться поздно - я замечен
E Am
Лечиться тоже поздно - я убит
Am Dm
Напрасно был я строго засекречен
E Am
Семья рыдает, мафия скорбит
Am C
На теле многочисленные раны
Dm E *переход D5 C5 Н5 Am*
Летит душа заблудшая в кювет
Am Dm
И вот на дне гидромассажной ванны
E Am
Встречаю молча я рассвет
ПРИПЕВ:
Am E
День и ночь,
Am G
День светлей, чем ночь
Dm Am
Шепчут губы,
E Am
Липкие как скотч
День и ночь
...светлей, чем ночь
Шепчут губы,
E Am E
Липкие, как скотч
Все кончено, я сделался покойник
Душа несется к сказочным лугам
Надежды уплывают в рукомойник,
А деньги в руки к моим врагам
Судьба моя, как сорванная пломба,
И телу остается только гнить
Но треугольник - это половина ромба
Посередине жизнь, как тоненькая нить
ПРИПЕВ:
Жизнь и смерть,
Сталь сильней, чем медь
Но престижней
Золото иметь
Жизнь и смерть
...сильней, чем медь
Но престижней Золото иметь
Am C
Оправдываться поздно - я замечен,
Dm E
Лечиться тоже поздно - я убит
Am Dm
Я был при жизни обеспечен,
E *bass*
А после смерти стану знамени-и-и-тым...
*bass* - это басовый ход, который мне
Семь планет
G-Riff B-Riff Em-Riff
G ------------------- ------4-------4---- -------------------
D ------5-------5---- ----4---4---4---4-- ------2-------2----
A ----5---5---5---5-- --2-------2-------- ----2---2---2---2--
E --3-------3-------- ------------------- --0-------0--------
E-Riff A-Riff D-Riff Fill:
G ------1-------1---- ------------------- ------7-------7---- -----------------
D ----2---2---2---2-- ------7-------7---- ----7---7---7---7-- -----------------
A ------------------- ----7---7---7---7-- --5-------5-------- --3-2-------(5)--
E --0-------0-------- --5-------5-------- ------------------- ------0-2-3------
Intrо: G-Riff
Verse[с Riff'ами]:
G B Em E
Мы будем вместе,
A [Fill] D [Fill] D Em[без перебора]
Пускай уже летят свободные тела, лишенные тепла, ввысь
Там, словно в тесте
Теперь они лежат, дешевые корма, полезные весьма, гордись
Chоrus:
G Em Bm A G Em F#m
Семь планет стоят и Землю ждут
Им пора лететь назад, их зовут
Verse:
Я где-то рядом
Уже почти привык к отсутствию следов, к дыханию садов, в грозу
Нас к водопадам
ДОставит ветер в миг, ведь мы легки, как газ, невидимы для глаз, внизу
[Chоrus]
[Sоlо in G minоr]
Verse:
Мы будем вместе,
Пускай уже летят свободные тела, лишенные тепла, вниз




Ваше мнение



Капча