From: Andrй Lindsay [[email protected]]
Sent: Sunday, December 14, 1997 1:07 PM
--------------------------------------------------------------------
YOU'RE BLEEDING - NOFX
--------------------------------------------------------------------
Song: You're Bleeding
Album: White Trash (1992)
By: Vincent Lindsay: [email protected]
The whole song is playing with the punkifier pedal:
-INTRO:
Guitar 1:
e-------------------------------------------------------------------
B--10--10-10--10-9--9-9--9-8--8-8--8-8--8-8--8-8--------------------
G-------------------------------------------------------------------
D-------------------------------------------------------------------
A-------------------------------------------------------------------
E-------------------------------------------------------------------
Guitar 2:
e-------------------------------------------------------------------
B-------------------------------------------------------------------
G--------------5----------------------5----------------------5------
D--------2-----5----------7-----2-----5----------7-----2-----5------
A--------2-----3----------7-----2-----3----------7-----2-----3------
E--------0----------------5-----0----------------5-----0------------
(still guitar 2): (guitar 1 continue INTRO)
e-------------------------------------------------------------------
B-------------------------------------------------------------------
G--------------5----------------------------------------------------
D--7-----2-----5-----5---drums enter here---------------------------
A--7-----2-----3-----5----------------------------------------------
E--5-----0-----------3----------------------------------------------
-VERSE: (Guitar 1 and 2)
e-------------------------------------------------------------------
B-------------------------------------------------------------------
G------------------------------5----5--5--5-------------------------
D--7----7--7--7--2----2--2--2--5----5--5--5--5----5--5--5-----------
A--7----7--7--7--2----2--2--2--3----3--3--3--5----5--5--5-----------
E--5----5--5--5--0----0--0--0----------------3----3--3--3-----------
-CHORUS:
Part 1(x2):
"You're draining,..." (Guitar 1 and 2)
e------------------------------------------------------------
B------------------------------------------------------------
G--------------------------------5----5--5----5--5----5--5--5
D--2----2--2----2--2----2--2--2--5----5--5----5--5----5--5--5
A--2----2--2----2--2----2--2--2--3----3--3----3--3----3--3--3
E--0----0--0----0--0----0--0--0------------------------------
e------------------------------------------------------------
B------------------------------------------------------------
G--7----7--7----7--7----7--7--7--4----4--4----4--4----4--4--4
D--7----7--7----7--7----7--7--7--4----4--4----4--4----4--4--4
A--5----5--5----5--5----5--5--5--2----2--2----2--2----2--2--2
E------------------------------------------------------------
-BRIDGE:
Part 2(x4): (Guitar 1 and 2)
e------------------------------------------------------------
B------------------------------------------------------------
G----------4--5----5--5--5-----------------------------------
D--2--x-x--4--5----5--5--5--7---7---7---8---9----9--9--------
A--2--x-x--2--3----3--3--3--7---7---7---8---9----9--9--------
E--0--x-x-------------------5---5---5---6---7----7--7--------
-LYRICS:
INTRO
VERSE 1:
You've got the beauty, but that don't mean a thing
A bland reciprocation, but that doesn't bother me
You're happier with lights on underneath a darkened sky
Only in the spotlight can you tell me of your crimes
VERSE 2:
I understand the situation, but I can't
Seem to understand the motivations you once had
I recall a message I once left behind a screen
I was entranced, when you were never there for me
CHORUS 1:
You're draining, you're draining me, I'm not a tub
What ever happened to the girl I used to hold?
I held in such a high regard
Where is the girl who had it all?
BRIDGE
VERSE 3:
I used to think I wasn't worthy of your cause
I used to feel so lucky
Until the day I felt a weakness in my arms
I knew from where it had been coming
CHORUS 2:
You're bleeding, you're bleeding me, I can recall
The passions you once had, where did they go?
I knew a girl who had it all
I knew a girl where did she go?
========================================================================




Ваше мнение



Капча